Song name
# A B C D E F G H I J K L M N O P Q R S T U V W X Y Z

Pianos Become The Teeth - Young Fire tab

-------------------------------------------------------------------------------
			     Young Fire - Pianos Become the Teeth
-------------------------------------------------------------------------------
Tabbed by: Kamdude
Email: triathlete_max@hotmail.com

Tuning: Standard

Here is somewhat of a work in progress. This song is 8 minutes long 
so I may extend this tab or tab the whole song later if I have time. 


e|---------------------------------------------------------------------------|
B|---------------------------------------------------------------------------|
G|--------7-------4----------0-------2/4-2-----------------------------------| x1000
D|-----5----5---7----------0---0---0-----------------------------------------|
A|--7---------5-------5--3-------3-------------------------------------------|
E|---------------------------------------------------------------------------|

Guitar 2 (lots of bends in these notes, I'll only show some of them)

0:19

e|---------------------------------------------------------------------------|
B|---------------------------------------------------------------------------|
G|-------9---7---11br-------------------4/12-12br--16br---16--14--16--11--12-|
D|-7-7/9--------------12br---9---10---7--------------------------------------|
A|---------------------------------------------------------------------------|
E|---------------------------------------------------------------------------|

0:48
e|---------------------------------------------------------------------------|
B|---------------------------------------------------------------------------|
G|-----------------4/12-12br--16br--16--14--16--11--12-----------------------|
D|12--9--7--9--10--------------------------------------12-9-7-9-10-9-10-9----|
A|---------------------------------------------------------------------------|
E|---------------------------------------------------------------------------|

1:16
e|---------------------------------------------------------------------------|
B|-------------17--20--10h12--7---5------------------------------------------|
G|-4/12-12--16---------------------------------------------------------------|
D|----------------------------------5--7b--5--9/7--7--14/12-12-12/14---------|
A|---------------------------------------------------------------------------|
E|---------------------------------------------------------------------------|


e|--12121212--14141414--15151515---17----19----------------------------------|
B|---------------------------------------------------------------------------|
G|---------------------------------------------------------------------------|
D|---------------------------------------------------------------------------|
A|---------------------------------------------------------------------------|
E|---------------------------------------------------------------------------|


************************************

| /   slide up
| \   slide down
| h   hammer-on
| p   pull-off
| ~   vibrato
| +   harmonic
| x   Mute note
| b   Bend
| pb  Pre-bend
| br  Bend release
| pbr Pre-bend release
| brb Bend release bend

***********************************
Tap to rate this tab
# A B C D E F G H I J K L M N O P Q R S T U V W X Y Z