Song name
# A B C D E F G H I J K L M N O P Q R S T U V W X Y Z

Pierce The Veil - Bulls In The Bronx tab

Hey guys, Pierce the Veil made a new song with an incredible
Classical Guitar Solo that i managed to tab out.
THIS MAY NOT BE THE WAY THEY PLAY IT IN THE SONG,
BUT IT SOUNDS EXACTLY THE SAME...Just needed to put that out there. 

Okay so the song is like most of their songs on their new album Collide with the 
sky, the tunning is Drop B.



|-----------------------------------------|x2 
|---5----5---9---9---12---12---13---13----|
|----5----5---7---7---13---13---14---14---|
|-----7----7---9---9---14---14---14---14--|
|-----------------------------------------|
|-----------------------------------------|


|--12------12-11-10-----10------13----13-----12---------------|
|----13--13--------12-----12------12----12-----13----12-13-15-|
|------14------------13-----13------13----13-----14-----------|
|-------------------------------------------------------------|
|-------------------------------------------------------------|
|-------------------------------------------------------------|
         
         Rake           Rake
        |---|          |---|  
|---12----12-15-14-13----13-----10---------10------12-17/////---|
|-----13-13----------12-12-12-----12--12-13------13-------------|
|-------14-------------13----13-----13---------14---------------|
|---------------------------------------------------------------|
|---------------------------------------------------------------|
|---------------------------------------------------------------|

 Okay this next part is sketchy cuz i know there is third note at the end,
 I just cant hear what it is. but the first two notes sound the same as the  song.

|------------|x5 (these next parts are pretty fast)
|--13p12p10--|
|------------|
|------------|
|------------|
|------------|


|------------|x5
|--12p11p10--|
|------------|
|------------|
|------------|
|------------|


|------------|x5
|--15p13p12--|
|------------|
|------------|
|------------|
|------------|


|------------|x5
|--17p14p13--|
|------------| (this is the part i am not sure about)
|------------|
|------------|
|------------|


|-\\12-11-10-|x2
|------------|
|------------|
|------------|
|------------|
|------------|

|-----------------------| Guitar 1
|--13-15-13-12----------|
|--------------14-13-14-|
|-----------------------|
|-----------------------|
|-----------------------|


|--12-13-12-10----------| Guitar 2         |----12-13-12-10----------|
|--------------14-13-14-|                  |----------------13-14-15-|
|-----------------------|                  |-------------------------|
|-----------------------|              or  |-------------------------|
|-----------------------|                  |-------------------------|
|-----------------------|                  |-------------------------|


Alright Pierce the Veil fans. Thats the solo. 
Like i said before,
i don't know if that is how Pierce the Veil plays it, but it sounds the same. 
Message me if you have any questions, corrections, or comments, i'd be happy to accept. 
Tap to rate this tab
# A B C D E F G H I J K L M N O P Q R S T U V W X Y Z