Song name
# A B C D E F G H I J K L M N O P Q R S T U V W X Y Z

Pierce The Veil - Bulls In The Bronx tab

Song: Bulls in the Bronx
Artist: Pierce the Veil
Album: Collide with the Sky (2012)
Track: 5

TUNING: DROP B

|---------------| x2
|---------------|
|---------------|
|---------------|
|----/7-3---0-3-|
|-1-------2-----|

|---------------| x2
|---------------|
|---------------|
|---------------|
|----/5-2---0-2-|
|-1-------2-----|
Tap to rate this tab
# A B C D E F G H I J K L M N O P Q R S T U V W X Y Z