Song name
# A B C D E F G H I J K L M N O P Q R S T U V W X Y Z

Pierre Van Dormael - Mr Nobody tab

                2x|
|-5---5---5---5---|-12---8---8---8---|-10---7---7---8-7-|-5---5---5---5---5---5----|
|---5---5---5---5-|----8---8---8---8-|----8---8---8-----|---6---6---6---6---6---10-|
|-----------------|------------------|------------------|--------------------------|
|-----------------|------------------|------------------|--------------------------|
|-----------------|------------------|------------------|--------------------------|
|-5---5---5---5---|-8----8---8---8---|-7----7---7---7---|-5---5---5---5---5---5----|

                  |:
|-5---5---5---5---|-13----10----10----10----|-12---8---8---8---|-10--7---7---12-10-|
|---5---5---5---5-|----10----10----10----10-|----8---8---8---8-|---8---8---8-------|
|-----------------|-------------------------|------------------|-------------------|
|-----------------|-------------------------|------------------|-------------------|
|-----------------|-------------------------|------------------|-------------------|
|-5---5---5---5---|-10----10----10----10----|-8----8---8---8---|-7---7---7---7-----|

                                  2x|               2x|
|-8---5---5---5-7-|-8---5---5---5---|-5---5---5---5---|-5-|
|---6---6---6-----|---5---5---5---5-|---5---5---5---5-|-5-|
|-----------------|-----------------|-----------------|-5-|
|-----------------|-----------------|-----------------|-7-|
|-----------------|-----------------|-----------------|-7-|
|-5---5---5---5---|-5---5---5---5---|-5---5---5---5---|-5-|

Tap to rate this tab
# A B C D E F G H I J K L M N O P Q R S T U V W X Y Z