Song name
# A B C D E F G H I J K L M N O P Q R S T U V W X Y Z

Pierre Van Dormael - Undercover tab

Sous le draps by Pierre Can Dormael, from the movie Mr. Nobody

This is a tab on the cover which can be found here https://www.youtube.com/watch?v=Yipk5SBH5_Q

Capo on 2nd fret
Only one guitar. Repeat this.

E|-----------0------------------0-----------------0------------------0------------------|
B|-------0-------0----------0-------0---------0-------0----------0-------0--------------|
G|-----0---0---0----------0---0---0---------0---0---0----------2---2---2---2------------|
D|---2--------------2--0---------------0------------------------------------------------|
A|---------------------------------------3---------------3--2---------------------------|
E|--------------------------------------------------------------------------------------|

Second guitar starts to play. Play this twice.

E|-----------0------------------0-----------------0------------------0------------------|
B|-------0-------0----------0-------0---------0-------0----------0-------0--------------|
G|-----0---0---0----------0---0---0---------0---0---0----------2---2---2---2------------|
D|---2--------------2--0---------------0------------------------------------------------|
A|---------------------------------------3---------------3--2---------------------------|
E|--------------------------------------------------------------------------------------|


E|-----------0------------------0----------------0-----------------0--------------------|
B|-------0-------0----------0-------0--------0-------0---------0-------0----------------|
G|-----0---0---0----------0---0---0---0----0---0---0---------1---1---1---1--------------|
D|---2--------------2--0-----------------------------------0----------------------------|
A|---------------------------------------4--------------4-------------------------------|
E|--------------------------------------------------------------------------------------|
	Am
E|-------------0----------------2-------------------0----------------0------------------|
B|--------1--------1--------0-------0-----------0----------------0-------0--------------|
G|------2---2----2---2----2---2---2---2-------0---0---0--------0---0---0---0------------|
D|------------------------------------------2------------2------------------------------|
A|---0-----------------2-------------------------------------4--------------------------|
E|--------------------------------------------------------------------------------------|
				Am
E|-------------0-------------------0----------------------------------------------------|
B|---------0-------------------1-----------------------------------------0--------------|
G|-------0---0---0-----0-----2---2---2-----0------3--------3--------2--------2----------|
D|----------------------------------------------2---2----2---2----1---1----1---1--------|
A|---3--------------2------0---------------------------3--------2-----------------------|
E|--------------------------------------3-----2-----------------------------------------|

Play the first part again, and finish with an Em chord.
Tap to rate this tab
# A B C D E F G H I J K L M N O P Q R S T U V W X Y Z