Song name
# A B C D E F G H I J K L M N O P Q R S T U V W X Y Z

Pillar - Sunday Bloody Sunday tab

A heavier version of U2's Sunday Bloody Sunday. Woot! What a great song. Anyway, this is 
close as I'm bothering to tab it, but it should be most, if not completely, correct. 
just how we do.

Guitar 1: CGCFAd
Guitar 2: CGCFAd

Clean intro:
   :10

Guitar 1
   clean
d --------------------------------------|
A ------7--------7--------5-------5-----|
F ----7---7----7---7----7---7---7---7---|
C --9--------7--------5-------5---------|
G --------------------------------------|
C --------------------------------------|

Heavy intro:
   :30

Both Guitars
    distorted
d ---x-------x-------------------|
A ---7-------7-------------------|
F ---7---0---7---0--0-0-0-0-0-0--|
C ---0---4---0---4--4-4-4-4-4-4--|
G ---0---2---0---2--2-2-2-2-2-2--|
C ---0-------0-------------------|
                   PM . . . . .

Chorus:
  :42

d ---------------------------------------------|
A ---------------------------------------------|
F -----4-4------7-7--------12--12------12--12--|
C -----4-4------7-7--------12--12------12--12--|
G --2--2-2---5--5-5----10--10--10--10--10--10--|
C ---------------------------------------------|
   PM        .          .           .

Verse riff:
   :52          the rhythm is kind of tricky.           1st ending   2nd
d ------------------------------------------------------|-----------|------|
A ------------------------------------------------------|-----------|------|
F ------------------------------------------------------|-----------|------|
C ----------4-4--------------2p0--------------0-------0-|---0-0-----|------|
G -2-2-2-2------2-2-5-5-5-5------5-5-7-7-7-7-----7-7----|-7-----5-5-|-5----|
C ------------------------------------------------------|-----------|---5b-|
   PM . . .       . . . . . .      . . . . . .     . .     .      . .

Chorus:
   1:12

Guitar 1
   clean
d --------------------------------------|
A ------7--------7--------5-------5-----|
F ----7---7----7---7----7---7---7---7---|
C --9--------7--------5-------5---------|
G --------------------------------------|
C --------------------------------------|

Guitar 2
    distorted
d ---------------------------------------------|
A ---------------------------------------------|
F -----4-4------7-7--------12--12------12--12--|
C -----4-4------7-7--------12--12------12--12--|
G --2--2-2---5--5-5----10--10--10--10--10--10--|
C ---------------------------------------------|
   PM        .         .            .

Pre chorus:
   1:22

Guitar 1
   clean
d ------------------------------------|
A ------------------------<7>---------|
G -----<7>--0------<5>--0----<7>--0---|
C --<7>-------------------------------|
G ------------------------------------|
C ------------------------------------|

Guitar 2
   distorted
d -------------------|
A -------------------|
G -------------------|
C --3----2----0------|
G --3----2----0------|
C --3----2----0------|


Second Chorus:
   1:31

Guitar 1
  clean
d --------------------------------------|
A ------7--------7--------5-------5-----|
F ----7---7----7---7----7---7---7---7---|
C --9--------7--------5-------5---------|
G --------------------------------------|
C --------------------------------------|

Guitar 2
   distorted
d ----------------------------------------|
A ----------------------------------------|
G -----4-4-------7-7-----9-9-----9-9------|
C -----4-4-------7-7-----9-9-----9-9------|
G --2--2-2----5--5-5--7--7-7--7--7-7------|
C ----------------------------------------|
   PM         .       .       .

Verse Riff:
   1:42

Heavy intro:
   2:01

Chorus:
   2:13

Pre chorus:
   2:33

Interlude:
    2:43

Guitar 1
   clean
d --8---10--5---------------|
A --8---8---7---------------|
F --7---7---7---------------|
C --------------------------|
G --------------------------|
C --------------------------|

Bridge:
  3:08

Played a total of four times through.

1st/3rd time           2nd/4th               2nd end   4th end
d ---------------------||-------------------|-------|------------------|
A ---------------------||-------------------|-------|------------------|
F ---------------------||-------------------|-------|------------------|
C --3-----5-----0------||--3-----5-----7----|-0-----|-0----x-0-x-0-x-0-|
G --3-----5-----0------||--3-----5-----7----|-0-----|-0----x-0-x-0-x-0-|
C --3-x8--5-x8--0-x16--||--3-x8--5-x4--7-x4-|-0-x16-|-0----x-0-x-0-x-0-|
   PM     .     .         .     .     .      .

    Gradually release palm mute to climax for chorus on the 4th time.

Chorus:
   3:23

Pre chorus (now more like an outro):
   3:43

End on:

d -----|
A -----|
F -----|
C -0---|
G -0---|
C -0---|

El fin. Thanks for playing! Yay for ratings!

aguy

vab359@aol.com
Tap to rate this tab
 
# A B C D E F G H I J K L M N O P Q R S T U V W X Y Z