Song name
# A B C D E F G H I J K L M N O P Q R S T U V W X Y Z

Pillar - Reaching Out tab

e|-5/7-7-7-7-x7x7-7-7-5/7-7-7-7-x5x5-5-5-5---------------------------------|
B|-5/7-7-7-7-x7x7-7-7-5/7-7-7-7-x5x5-5-5-5---------------------------------|
G|-------------------------------------------------------------------------|
D|-------------------------------------------------------------------------|
A|-------------------------------------------------------------------------|
E|-------------------------------------------------------------------------|

e|-7----7-7-7-7-7-7-5----5-5-5-5-5-5-3--3--2-2-----------------------------|
B|-7-h9-9-9-7-7-7-7-5-h7-7-7-5-5-5-5-4--3--2---2---------------------------|
G|-7----7-7---------5----5-5---------3--3--2-----2-------------------------|
D|-7-h9-9-9---------5-h7-7-6---------5--5--4-------4-----------------------|
A|-7----7-7---------5----5-5---------3-------------------------------------|
E|-------------------------------------------------------------------------|

  Solo 1(Using the D major scale)
e|-------------------------------------------------------------------------|
B|-14~-14-15-15-15-17-15-14-14h15p14-14--14-15-----------------------------|
G|---------------------------------------------16^^-14-14-12/14-14-16-16^14|
D|-------------------------------------------------------------------------|
A|-------------------------------------------------------------------------|
E|-------------------------------------------------------------------------|

e|-------------------------------------------------------------------------|
B|-14~-14-15-15-15-17-15-14-14h15p14-14--17-15-14-15-14--------------------|
G|------------------------------------------------------14h16p14-14-12-14--|
D|-------------------------------------------------------------------------|
A|-------------------------------------------------------------------------|
E|-------------------------------------------------------------------------|

e|-------------------------------------------------------------------------|
B|-------------------------------------------------------------------------|
G|-------------------------12-12-14-14^^-14^^r12h14p12-12h14p12-12-12-12---|
D|-12-12/14\12/14\12/14-14-------------------------------------------------|
A|-------------------------------------------------------------------------|
E|-------------------------------------------------------------------------|

  Bridge
e|-------------------------------------------------------------------------|
B|-------------------------------------------------------------------------|
G|------------------------------------------------------------(7)----------|
D|-4-4-x-x-7-7-x-x-9-9-x-x-7-7-4-4--4-4-x-x-7-7-x-x-9-9-x-x---(7)----------|
A|-4-4-x-x-7-7-x-x-9-9-x-x-7-7-4-4--4-4-x-x-7-7-x-x-9-9-x-x---(5)----------|
E|-2-2-x-x-5-5-x-x-7-7-x-x-5-5-2-2--2-2-x-x-5-5-x-x-7-7-x-x----------------|

  Bridge Lick
e|-------------------------------------------------------------------------|
B|-----14-----14-14-14h15p14-----------------------------------------------|
G|-16^----16^----------------14-12-----------------------------------------|
D|-------------------------------------------------------------------------|
A|-------------------------------------------------------------------------|
E|-------------------------------------------------------------------------|

  Solo 2
e|-------------------------------------------------------------------------|
B|-14-14-15-15-15-17-15-14-14h15p14-14-------------------------------------|
G|-------------------------------------------------------------------------|
D|-------------------------------------------------------------------------|
A|-------------------------------------------------------------------------|
E|-------------------------------------------------------------------------|

								Last Note
e|--------------------------------------------------|----------------------|
B|---17-15-14-14-15-17-15-14-15---------------------|----14----------------|
G|--x---------------------------16\14\12\11^\9------|----------------------|
D|--------------------------------------------------|----------------------|
A|--------------------------------------------------|----------------------|
E|--------------------------------------------------|----------------------|
Tap to rate this tab
 
# A B C D E F G H I J K L M N O P Q R S T U V W X Y Z