Song name
# A B C D E F G H I J K L M N O P Q R S T U V W X Y Z

Pillar - One Thing tab

Help us improve GuitareTab! Take a short survey!
Band- Pillar
Song- One Thing

Tuning - Drop C - CGCFAD

  INTRO
D|-------------------------------------------------------|
A|-------------------------------------------------------|
F|-------------------------------------------------------|
C|-------------------------------------------------------|
G|-0-0-0-0-0-0-0-0---0-0-0-0-0-0-0-0---0-0-0-0-0-0-0-0---|
C|-0-0-0-0-0-0-0-0---0-0-0-0-0-0-0-0---0-0-0-0-0-0-0-0---|
  pm..............   pm.............   pm.............

D|-------------------------------------------------------|
A|-------------------------------------------------------|
F|-------------------------------------------------------|
C|-------------------------------------------------------|
G|-0-0-0-0-0-0-0-0---0-0-0-0-0-0-0-0---0-0-0-0-0-0-0-0---|
C|-0-0-0-0-0-0-0-0---0-0-0-0-0-0-0-0---0-0-0-0-0-0-0-0---|
  pm..............   pm.............   pm.............


  MAIN PART
D|-----------------------------------------|
A|-----------------------------------------|
F|----------7----------------7----7/8-8-8--|
C|----------5----------------5----5/6-6-6--|
G|-0-0--0-0---0-0-0-0--0-0-0---0-----------|
C|-0-0--0-0---0-0-0-0--0-0-0---0-----------|
   pm......   pm............   pm

D|-----------------------------------------|
A|-----------------------------------------|
F|----------7----------------7----7/8-8-8--|
C|----------5----------------5----5/6-6-6--|
G|-0-0--0-0---0-0-0-0--0-0-0---0-----------|
C|-0-0--0-0---0-0-0-0--0-0-0---0-----------|
   pm......   pm............   pm

D|-----------------------------------------|
A|-----------------------------------------|
F|----------7----------------7----7/8-8-8--|
C|----------5----------------5----5/6-6-6--|
G|-0-0--0-0---0-0-0-0--0-0-0---0-----------|
C|-0-0--0-0---0-0-0-0--0-0-0---0-----------|
   pm......   pm............   pm

D|-----------------------------------|
A|-----------------------------------|
F|----------7----------5-5-5--3-3-3--|
C|----------5----------3-3-3--1-1-1--|
G|-0-0--0-0---0-0-0-0----------------|
C|-0-0--0-0---0-0-0-0----------------|
   pm......   pm.....
Related for One Thing tab