Song name
# A B C D E F G H I J K L M N O P Q R S T U V W X Y Z

Pillar - Unity tab

Help us improve GuitareTab! Take a short survey!
Drop-D
This is part of the solo towards the end.

e|------------12-12----------------------x12-12-15p13---------------------12-|
b|11-10------------13-10-----------13-10-x12---------13----------------------|
g|-----10---------------10-10h12-12------x12---------------------------------|
d|-------11h12-------------------------------------------10-10-10-12-10-12---|
a|------------------------------------------------------------------------12-|
d|---------------------------------------------------------------------------|

e|-12--------------------------|
b|---13-10-----------13-10-----|
g|--------10-10h12-12----------|
d|--------------------------10-|
a|------------------------12---|
d|-----------------------------|
Related for Unity tab