Song name
# A B C D E F G H I J K L M N O P Q R S T U V W X Y Z

Pillar - Reckless Youth tab

----------------------------------------------------------------------------
			     RECKLESS YOUTH - PILLAR
----------------------------------------------------------------------------
Tabbed by:NICKMAN022
Email:nickman02@charter.net

Tuning: C G C F A D
                        *  
d|------------------------------|
A|-9b-9brp7---7------10---------|
F|----------9---9/11----9-11~---|
C|------------------------------|
G|------------------------------|
C|------------------------------|
       + +  +  + +  +  + +  +  +                            +
d|-------------------------------------------------------------------------|
A|---------------------------------------------9-9h10p9--------------------|
F|-------------------------------------9-11-13----------11-(9)-9h11--------|
C|-------------9-11----9-11-12-9-11-12-------------------------------------|
G|-9~--9-11-12------12-----------------------------------------------------|
C|-------------------------------------------------------------------------|
d|-----------------14--------|
A|-10/(14)-14/(17)----14-17~-|
F|---------------------------|
C|---------------------------|
G|---------------------------|
C|---------------------------|

d|----------------|
A|-16brp14----14--|
F|---------17-----| Repeat and Gradually increase speed
C|----------------|
G|----------------|
C|----------------| 
                                                                  VV That last 18b is a VV
                                                                  VV 1.5 step bend. VV
d|---------------------------------------------------------|
A|-16brp14----14--/19~---19b-17-19-------------------------|
F|---------17----------------------18~--16-18-18br-16~-----|
C|---------------------------------------------------------|
G|---------------------------------------------------------|
C|---------------------------------------------------------|

d|-----------------------------------------------------------|
A|----------------17------------------17------------------17-|
F|-14p13----13h14------14p13----13h14------14p13----13h14----|
C|-------16------------------16------------------16----------|
G|-----------------------------------------------------------|
C|-----------------------------------------------------------|

d|---------------------------|
A|-------17/19-19~-19~-19~~--|
F|-14p13---------------------|
C|---------------------------|
G|---------------------------|
C|---------------------------|

| /  slide up
| \  slide down
| h  hammer-on
| p  pull-off
| ~  vibrato
| +  harmonic
| x  Mute note
| *  Pinch Harmonic
| () Ghost Note
============================================================================
Tap to rate this tab
# A B C D E F G H I J K L M N O P Q R S T U V W X Y Z