Song name
# A B C D E F G H I J K L M N O P Q R S T U V W X Y Z

Pillar - Not Without A Fight tab

ok this song is pretty easy just figured out most of it so heres the intro

theres 2 guitars starts out with this riff then plays through the entire

intro

Gtr #1
e|---------------|
B|-5-7-8-----12--|
G|-------7-9-----|
D|---------------| X5
A|---------------|
E|---------------|
Gtr #2
     h   h                h               p                h
e|-----------------------------------------------------------------------|
B|-----------------------------------------------------------------------|
G|-----------------------------------------------------------------------|
D|0-2-0-2-2-2-2-2-2-2--0-5-5-5-5-5-5-5--5-0-0-0-0-0-0-0--0-7-7-7-7-7-7-7-|X2
A|0-2-0-2-2-2-2-2-2-2--0-5-5-5-5-5-5-5--5-0-0-0-0-0-0-0--0-7-7-7-7-7-7-7-|
E|0-2-0-2-2-2-2-2-2-2--0-5-5-5-5-5-5-5--5-0-0-0-0-0-0-0--0-7-7-7-7-7-7-7-|

Verse
Gtr #1
e|--------------------------------------------------|
B|--------------------------------------------------|
G|--------------------------------------------------|
D|-------4-5---------4-5---------4-5---------4-5----|
A|-0-0-0-----0-0-0-0-----0-0-0-0-----0-0-0-0--------|
E|-0-0-0-----0-0-0-0-----0-0-0-0-----0-0-0-0--------|

e|--------------------------------------------------|
B|--------------------------------------------------|
G|--------------------------------------------------|
D|---------7-5---------7-5---------7-5---------4-2--|
A|-0-0-0-0-----0-0-0-0-----0-0-0-0-----0-0-0-0------|
E|-0-0-0-0-----0-0-0-0-----0-0-0-0-----0-0-0-0------|

Chorus

Gtr #2
   h   h                h                p                h
e|-----------------------------------------------------------------------|
B|-----------------------------------------------------------------------|
G|-----------------------------------------------------------------------|
D|0-2-0-2-2-2-2-2-2-2--0-5-5-5-5-5-5-5--5-0-0-0-0-0-0-0--0-7-7-7-7-7-7-7-|X2
A|0-2-0-2-2-2-2-2-2-2--0-5-5-5-5-5-5-5--5-0-0-0-0-0-0-0--0-7-7-7-7-7-7-7-|
E|0-2-0-2-2-2-2-2-2-2--0-5-5-5-5-5-5-5--5-0-0-0-0-0-0-0--0-7-7-7-7-7-7-7-|


| /  slide up
| \  slide down
| h  hammer-on
| p  pull-off
| ~  vibrato
| +  harmonic
| x  Mute note
==========================================================================

please leave comments as to the rest of the song. also note i have this for a drop c 
when its played on a drop A baritone guitar.

Rate freely
Thanks
Tap to rate this tab
# A B C D E F G H I J K L M N O P Q R S T U V W X Y Z