Song name
# A B C D E F G H I J K L M N O P Q R S T U V W X Y Z

Pillar - Will You Be There tab

  Will You Be There - Pillar

Intro/Verse
    E                               B               F#
e|--------------------------------------------------------------------|
B|------0-----0---------0-----0---------0-----0----------0-----0------|
G|--------------------------------------------------------------------|
D|----4-----4-----4---4-----4-----4---4-----4------4---4-----4-----4--|
A|----------------------------------2-----2-----2---------------------|
E|--0-----0-----0---0-----0-----0--------------------2-----2-----2----|

(X2 for intro)
(X2 for Verse)
End Verse like this (Prelude)
    E                               B               F#
e|--------------------------------------------------------------------|
B|------0-----0---------0-----0---------0-----0---------0-----0-------|
G|--------------------------------------------------------------------|
D|----4-----4-----4---4-----4-----4---4-----4-----4---4-----4-----4---|
A|--------------------------------------------------------------------|
E|--0-----0-----0---0-----0-----0---2-----2-----2---2-----2-----2-----|

Chorus
G#              E         B
  When the sun comes up tomorrow
              G#
  Will you be there
  E           B
  Will you be there
G#          E      B
  If I fade away tomorrow
              G#
  Will you be there
          E        B           E
  Or will you stay here

Verse (X2)
Prelude
Chorus

Bridge
(Noah adds some background electric guitar here but i didn't work it out)
E                F#
  Cause there is just one thing about you            
      E  
  Its I just can't live without you
     F#                     E 
  So I'll just keep holding on
           F#
  There is just one thing about you
      E
  Its I just can't live without you
     F#                    
  So I'll just keep holding on

Chorus

LYRICS:
Tell me when its over
Never thought we'd be here
Moments passing by I'm losing you
So much that I never knew
Couldn't bring it outta you
Caught up in the history
It won't let you go, go

When the sun comes up tomorrow
Will you be there
Will you be there
If I fade away tomorrow
Will you be there
Or will you stay here

Tell me its not over
I can't see it anymore
All the love is passin by
I'm losing you
Of all the things I ever said
Never been so much regret
Hard to see the future if the past is in the way
Can we find a way

When the sun comes up tomorrow
Will you be there
Will you be there
If I fade away tomorrow
Will you be there
Or will you stay here

Cause there is just one thing about you
Its I just can't live without you
So I'll just keep holding on
There is just one thing about you
Its I just can't live without you
So I'll just keep holding on

When the sun comes up tomorrow
Will you be there
Will you be there
If the sun comes up tomorrow
Will you be there
Will you be there
If I fade away tomorrow
Will you be there
Will you stay here

This is my first tab so rate it please :D
Tap to rate this tab
# A B C D E F G H I J K L M N O P Q R S T U V W X Y Z