Song name
# A B C D E F G H I J K L M N O P Q R S T U V W X Y Z

Pillows - Ladybird Girl tab

=========================================
               the pillows
              Ladybird Girl
Track #9 from the 2008 album "PIED PIPER"
=========================================

Tabbed by Pedro Macedo, A.K.A. Linkerman
Okay, this is the tab for the whole song, with the two guitars separated.
I hope you enjoy playing this song as much as i enjoyed tabbing it.
For those of you who want to play the Lead chorus on the G-string (no pun intended!)
to get a "treblier" sound, you can play it on the frets 1 to 6.
Comments and corrections are welcome!
Contact me: o_samaritano-hellboy(at)sapo.pt

Standard tuning


Intro
Lead guitar
e|-14-12----------------------|
B|-------15-17-15-14-15-14----|
G|-------------------------14-|
D|----------------------------|
A|----------------------------|
E|----------------------------|

Rhythm guitar
e|-----------------|
B|-----------------|
G|-----------------|
D|-2~\4~\6~\7\11~~-|
A|-----------------|
E|-----------------|


Verse 1 (Rhythm guitar only, Palm Mute)
e|-------------------------------------------------|
B|-------------------------------------------------|
G|-------------------------------------------------| x4
D|-------------------------------------7-7-7-7-7-7-|
A|-7-7-7-7-7-7-2-2-2-2-2-2-4-4-4-4-4-4-5-5-5-5-5-5-|
E|-5-5-5-5-5-5-0-0-0-0-0-0-2-2-2-2-2-2-------------|


Pre-chorus 1
Lead guitar
e|-------------------------------------------------|
B|-------------------------------------------------|
G|-------------------------------------------------|
D|-9-9~~-------9-9~~-------9~~---------------------|
A|-9-9~~-------9-9~~-------9~~---------------------|
E|-7-7~~-------7-7~~-------7~~---------------------|

Rhythm guitar (Palm Mute)
e|-------------------------------------------------|
B|-------------------------------------------------|
G|-------------------------------------------------|
D|-4-4-4-4-4-4-------------7-7-7-7-7-7-7-7-7-7-7-7-|
A|-2-2-2-2-2-2-2-2-2-2-2-2-5-5-5-5-5-5-5-5-5-5-5-5-|
E|-------------0-0-0-0-0-0-------------------------|


Chorus 1
Lead guitar
e|---------------------------------------------------------|
B|---------------------------------------------------------|
G|---------------------------------------------------------|
D|---7---6---9---7---11-9-7~----7---6---9---7---6-7-6-9-7~-|
A|-0---0---0---0--------------0---0---0---0----------------|
E|---------------------------------------------------------|

Rhythm guitar
e|-------------------------------------------------|
B|-------------------------------------------------|
G|-------------------------------------------------| x2
D|-------------------------------------7-7-7-7-7-7-|
A|-7-7-7-7-7-7-2-2-2-2-2-2-4-4-4-4-4-4-5-5-5-5-5-5-|
E|-5-5-5-5-5-5-0-0-0-0-0-0-2-2-2-2-2-2-------------|


Verse 2
Lead guitar (On the end of Rhythm guitar's 4th time around, just before Pre-chorus 2)
e|-------------------------------------------------|
B|-------------------------------------------------|
G|-------------------------------------------------|
D|-------------------------11-11-11-11-12-12-12-12-|
A|-------------------------------------------------|
E|-------------------------------------------------|

Rhythm guitar (Palm Mute)
e|-------------------------------------------------|
B|-------------------------------------------------|
G|-------------------------------------------------| x4
D|-------------------------------------7-7-7-7-7-7-|
A|-7-7-7-7-7-7-2-2-2-2-2-2-4-4-4-4-4-4-5-5-5-5-5-5-|
E|-5-5-5-5-5-5-0-0-0-0-0-0-2-2-2-2-2-2-------------|


Pre-chorus 2
Lead guitar
e|-------------------------------------------------|
B|-------------------------------------------------|
G|-15~~--------------15~~--------------------------|
D|-------------------------------------------------|
A|-------------------------------------------------|
E|-------------------------------------------------|

Rhythm guitar (Palm Mute)
e|-------------------------------------------------|
B|-------------------------------------------------|
G|-------------------------------------------------|
D|-4-4-4-4-4-4-------------7-7-7-7-7-7-7-7-7-7-7-7-|
A|-2-2-2-2-2-2-2-2-2-2-2-2-5-5-5-5-5-5-5-5-5-5-5-5-|
E|-------------0-0-0-0-0-0-------------------------|


"Is this love, is this love...?"
Both guitars
e|-------------------------------------------------|
B|-------------------------------------------------|
G|-------------7-7-7-7-7-7-------------7-7-7-7-7-7-|
D|-4-4-4-4-4-4-7-7-7-7-7-7-7-7-7-7-7-7-7-7-7-7-7-7-|
A|-4-4-4-4-4-4-5-5-5-5-5-5-7-7-7-7-7-7-5-5-5-5-5-5-|
E|-2-2-2-2-2-2-------------5-5-5-5-5-5-------------|

e|-------------------------------------------------|
B|-------------------------------------------------|
G|-------------7-7-7-7-7-7-------------------------|
D|-4-4-4-4-4-4-7-7-7-7-7-7-7-7-7-7-7-7-2-2-2-2-2-2-|
A|-4-4-4-4-4-4-5-5-5-5-5-5-7-7-7-7-7-7-2-2-2-2-2-2-|
E|-2-2-2-2-2-2-------------5-5-5-5-5-5-0-0-0-0-0-0-|


Chorus 2 = Play Chorus 1


Verse 3
Lead guitar (Starts on Rhythm guitar's 3rd time around)
e|-9~-----------12~--------9~-----------10~--------|
B|-----------10----------------------10------------|
G|-------------------------------------------------| x2
D|-------------------------------------------------|
A|-------------------------------------------------|
E|-------------------------------------------------|

Rhythm guitar (Palm Mute)
e|-------------------------------------------------|
B|-------------------------------------------------|
G|-------------------------------------------------| x4
D|-------------------------------------7-7-7-7-7-7-|
A|-7-7-7-7-7-7-2-2-2-2-2-2-4-4-4-4-4-4-5-5-5-5-5-5-|
E|-5-5-5-5-5-5-0-0-0-0-0-0-2-2-2-2-2-2-------------|


Pre-chorus 3 = Play Pre-chorus 2

Play "Is this love, is this love...?" riff


Solo
Lead guitar
e|-------------------------------------------------------|
B|-------------------------------------------------------|
G|-6b-4--------------------------------------------------|
D|------7-6-7-6-4----------------------------------------|
A|----------------5b-4-2-0-2~-2b-------------5b-4-2-0-7~-|
E|-------------------------------5-4-2-0-2-4-------------|

e|-------------------------------------------------------|
B|-------------------------------------------------------|
G|-6b-4--------------------------------------------------|
D|------7-6-7-6-4----------------------------------------|
A|----------------5b-4-2-0-2~-2---------------0-2-4-5-7~-|
E|------------------------------5-4-2-0-2-4-5------------|

Rhythm guitar
e|---------------------------------|---------------------------------|
B|---------------------------------|---------------------------------|
G|-4-6-7~~-7-6-4~~-4-6-7~~-7-6-2~~-|-4-6-7~~-7-6-4~~-4-6-7~~-7-6-9~~-|
D|-4-6-7~~-7-6-4~~-4-6-7~~-7-6-2~~-|-4-6-7~~-7-6-4~~-4-6-7~~-7-6-9~~-|
A|-2-4-5~~-5-4-2~~-2-4-5~~-5-4-0~~-|-2-4-5~~-5-4-2~~-2-4-5~~-5-4-7~~-|
E|---------------------------------|---------------------------------|


Post solo
Lead guitar
e|----2~~----------5~~--------2~~--------------------------|
B|---------------2-----------------------2-3~--2-3-6~~-9~~-|
G|-2~----------2-----------2~----------1-------------------|
D|---------------------------------------------------------|
A|---------------------------------------------------------|
E|---------------------------------------------------------|

Rhythm guitar
e|---------------------------------------------------------|
B|---------------------------------------------------------|
G|---------------------------------------------------------|
D|-7-7-7-7-7-7-------------7-7-7-7-7-7-4-4-4-4-6-6-6-6-6-6-|
A|-5-5-5-5-5-5-7-7-7-7-7-7-5-5-5-5-5-5-2-2-2-2-4-4-4-4-4-4-|
E|-------------5-5-5-5-5-5---------------------------------|


Play "Is this love, is this love...?" riff 2x


Final Chorus
Lead guitar
e|---------------------------------------------------------|
B|---------------------------------------------14~-14~-14~-|
G|---------------------------------------------------------|
D|---7---6---9---7---11-9-7~----7---6---9---7--------------|
A|-0---0---0---0--------------0---0---0---0----------------|
E|---------------------------------------------------------|

e|---------------------------------------------------------|
B|---------------------------------------------------------|
G|---------------------------------------------------------|
D|---7---6---9---7---11-9-7~----7---6---9---7---6-7-6-9-7~-|
A|-0---0---0---0--------------0---0---0---0----------------|
E|---------------------------------------------------------|

Rhythm guitar                                        _
e|-------------------------------------------------|  |
B|-------------------------------------------------|  |
G|-------------------------------------------------|  |
D|-------------------------------------7-7-7-7-7-7-|  |
A|-7-7-7-7-7-7-2-2-2-2-2-2-4-4-4-4-4-4-5-5-5-5-5-5-|  |
E|-5-5-5-5-5-5-0-0-0-0-0-0-2-2-2-2-2-2-------------|  \
                                                       > x2,   end on
e|-------------------------------------------------|  /       |------|
B|-------------------------------------------------|  |       |------|
G|-------------------------------------------------|  |       |------|
D|-------------------------------------7-x-7-x-7~~-|  |       |-7\~~-|
A|-7-7-7-7-7-7-2-2-2-2-2-2-4-4-4-4-4-4-5-x-5-x-5~~-|  |       |-5\~~-|
E|-5-5-5-5-5-5-0-0-0-0-0-0-2-2-2-2-2-2-------------| _|       |------|
Tap to rate this tab
# A B C D E F G H I J K L M N O P Q R S T U V W X Y Z