Guitaretab - guitar tabs
Song name
# A B C D E F G H I J K L M N O P Q R S T U V W X Y Z

Pillows - Pied Piper tab

The Pillows - Pied Piper
xX-(Yoshiaki Manabe Guitar Part)-Xx

~INTRO~

e|--7-------------5--------------|
H|--7-7-7-7-----8-6-6-6-6--------|
G|--9-------9-9---7-------7-7-7--|
D|--9-------------7--------------|
A|--7-------------5--------------|
E|--7-------------5--------------|

e|--7-------------5--------------|
H|--7-7-7-7-----8-6-6-6-6--------|
G|--9-------9-9---7-------7-7-7--|
D|--9-------------7--------------|
A|--7-------------5--------------|
E|--7-------------5--------------|

e|--3-3-3--5-5--|
H|--3-3-3--5-5--|
G|--5-5-4--7-6--|
D|--5-5-5--7-7--|
A|--3-3-3--5-5--|
E|--3-3-3--5-5--|

e|-------------|
H|-------------|
G|--7-5-5-6-9--|
D|-------------|
A|--5-3-3-4-7--|
E|-------------|

~MAIN PART~

e|-----------------------------------|
H|-----------------------------------|
G|-----------------------------------|
D|--7-7-7-7-7------------------------|
A|--5-5-5-5-5-7-7-7-5-5-5-5-4-4-4-4--|
E|------------5-5-5-3-3-3-3-3-2-2-2--|

e|-------------------------------|
H|-------------------------------|
G|-------------------------------|
D|-------------------------------|
A|--2-2-2-4-4-4-5-5-5-5-5-7-7-7--|
E|--0-0-0-2-2-2-3-3-3-3-3-5-5-5--|

e|-----------------------------------|
H|-----------------------------------|
G|-----------------------------------|
D|--7-7-7-7-7------------------------|
A|--5-5-5-5-5-7-7-7-5-5-5-5-4-4-4-4--|
E|------------5-5-5-3-3-3-3-3-2-2-2--|

e|-------------------------------|
H|-------------------------------|
G|-------------------------------|
D|-------------------------------|
A|--2-2-2-4-4-4-5-5-5-5-5-7-7-7--|
E|--0-0-0-2-2-2-3-3-3-3-3-5-5-5--|

e|-----3-3-5-5--|
H|-----3-3-5-5--|
G|-----4-4-6-6--|
D|-----5-5-7-7--|
A|--5--5-5-7-7--|
E|--3--3-3-5-5--|

~REFRAIN~

e|--3-3-3-3-3--5-5-5-5-5--5-5-5-5-5--7-7-7-7-7--|
H|--3-3-3-3-3--7-7-7-7-7--5-5-5-5-5--7-7-7-7-7--|
G|--4-4-4-4-4--7-7-7-7-7--6-6-6-6-6--8-8-8-8-8--|
D|--5-5-5-5-5--7-7-7-7-7--7-7-7-7-7--9-9-9-9-9--|
A|--5-5-5-5-5--5-5-5-5-5--7-7-7-7-7--9-9-9-9-9--|
E|--3-3-3-3-3--5-5-5-5-5--5-5-5-5-5--7-7-7-7-7--|

e|--3-3-3-3-3--5-5-5-5-5--5-5-5--3-5-5--3-3-5-5--|
H|--3-3-3-3-3--7-7-7-7-7--5-5-5--3-5-5--3-3-5-5--|
G|--4-4-4-4-4--7-7-7-7-7--6-6-6--4-6-6--4-4-6-6--|
D|--5-5-5-5-5--7-7-7-7-7--7-7-7--5-7-7--5-5-7-7--|
A|--5-5-5-5-5--5-5-5-5-5--7-7-7--5-7-7--5-5-7-7--|
E|--3-3-3-3-3--5-5-5-5-5--5-5-5--3-5-5--3-3-5-5--|

e|--3-3-3-3-3--5-5-5-5-5--5-5-5-5-5--7-7-7-7-7--|
H|--3-3-3-3-3--7-7-7-7-7--5-5-5-5-5--7-7-7-7-7--|
G|--4-4-4-4-4--7-7-7-7-7--6-6-6-6-6--8-8-8-8-8--|
D|--5-5-5-5-5--7-7-7-7-7--7-7-7-7-7--9-9-9-9-9--|
A|--5-5-5-5-5--5-5-5-5-5--7-7-7-7-7--9-9-9-9-9--|
E|--3-3-3-3-3--5-5-5-5-5--5-5-5-5-5--7-7-7-7-7--|

e|--3-3-3-3-3--5-5-5-5-5--5-5-5--3-5-5--|
H|--3-3-3-3-3--7-7-7-7-7--5-5-5--3-5-5--|
G|--4-4-4-4-4--7-7-7-7-7--6-6-6--4-6-6--|
D|--5-5-5-5-5--7-7-7-7-7--7-7-7--5-7-7--|
A|--5-5-5-5-5--5-5-5-5-5--7-7-7--5-7-7--|
E|--3-3-3-3-3--5-5-5-5-5--5-5-5--3-5-5--|

e|-------------|
H|-------------|
G|--7-5-5-6-9--|
D|-------------|
A|--5-3-3-4-7--|
E|-------------|

~MAIN PART~

e|-----------------------------------|
H|-----------------------------------|
G|-----------------------------------|
D|--7-7-7-7-7------------------------|
A|--5-5-5-5-5-7-7-7-5-5-5-5-4-4-4-4--|
E|------------5-5-5-3-3-3-3-3-2-2-2--|

e|-------------------------------|
H|-------------------------------|
G|-------------------------------|
D|-------------------------------|
A|--2-2-2-4-4-4-5-5-5-5-5-7-7-7--|
E|--0-0-0-2-2-2-3-3-3-3-3-5-5-5--|

e|-----------------------------------|
H|-----------------------------------|
G|-----------------------------------|
D|--7-7-7-7-7------------------------|
A|--5-5-5-5-5-7-7-7-5-5-5-5-4-4-4-4--|
E|------------5-5-5-3-3-3-3-3-2-2-2--|
[ Tab from: http://www.guitaretab.com/p/pillows/173859.html ]
e|-------------------------------|
H|-------------------------------|
G|-------------------------------|
D|-------------------------------|
A|--2-2-2-4-4-4-5-5-5-5-5-7-7-7--|
E|--0-0-0-2-2-2-3-3-3-3-3-5-5-5--|

e|-----3-3-5-5--|
H|-----3-3-5-5--|
G|-----4-4-6-6--|
D|-----5-5-7-7--|
A|--5--5-5-7-7--|
E|--3--3-3-5-5--|

~REFRAIN~

e|--3-3-3-3-3--5-5-5-5-5--5-5-5-5-5--7-7-7-7-7--|
H|--3-3-3-3-3--7-7-7-7-7--5-5-5-5-5--7-7-7-7-7--|
G|--4-4-4-4-4--7-7-7-7-7--6-6-6-6-6--8-8-8-8-8--|
D|--5-5-5-5-5--7-7-7-7-7--7-7-7-7-7--9-9-9-9-9--|
A|--5-5-5-5-5--5-5-5-5-5--7-7-7-7-7--9-9-9-9-9--|
E|--3-3-3-3-3--5-5-5-5-5--5-5-5-5-5--7-7-7-7-7--|

e|--3-3-3-3-3--5-5-5-5-5--5-5-5--3-5-5--3-3-5-5--|
H|--3-3-3-3-3--7-7-7-7-7--5-5-5--3-5-5--3-3-5-5--|
G|--4-4-4-4-4--7-7-7-7-7--6-6-6--4-6-6--4-4-6-6--|
D|--5-5-5-5-5--7-7-7-7-7--7-7-7--5-7-7--5-5-7-7--|
A|--5-5-5-5-5--5-5-5-5-5--7-7-7--5-7-7--5-5-7-7--|
E|--3-3-3-3-3--5-5-5-5-5--5-5-5--3-5-5--3-3-5-5--|

e|--3-3-3-3-3--5-5-5-5-5--5-5-5-5-5--7-7-7-7-7--|
H|--3-3-3-3-3--7-7-7-7-7--5-5-5-5-5--7-7-7-7-7--|
G|--4-4-4-4-4--7-7-7-7-7--6-6-6-6-6--8-8-8-8-8--|
D|--5-5-5-5-5--7-7-7-7-7--7-7-7-7-7--9-9-9-9-9--|
A|--5-5-5-5-5--5-5-5-5-5--7-7-7-7-7--9-9-9-9-9--|
E|--3-3-3-3-3--5-5-5-5-5--5-5-5-5-5--7-7-7-7-7--|

e|--3-3-3-3-3--5-5-5-5-5--5-5-5--3-5-5--|
H|--3-3-3-3-3--7-7-7-7-7--5-5-5--3-5-5--|
G|--4-4-4-4-4--7-7-7-7-7--6-6-6--4-6-6--|
D|--5-5-5-5-5--7-7-7-7-7--7-7-7--5-7-7--|
A|--5-5-5-5-5--5-5-5-5-5--7-7-7--5-7-7--|
E|--3-3-3-3-3--5-5-5-5-5--5-5-5--3-5-5--|

~SOLO~

e|----------------------------------------------------------------------------------------------|
H|----------------------------------------------------------------------------------------------|
G|--14-12-11-10-9-9-9-7-5---7-5---5-7--14-12-11-12-9-9-9-9-11-11-11-11-12-12-12-12-14-14-14-14--|
D|------------------------7-----7---------------------------------------------------------------|
A|--12-10-9--8--7-7-7-5-3---5-3---3-5--12-10-9--10-7-7-7-7-9--9--9--9--10-10-10-10-12-12-12-12--|
E|------------------------5-----5---------------------------------------------------------------|

e|---------------------------------------------------------|
H|---------------------------------------------------------|
G|-----------5\7-----------5\7--------------------7-7-9-9--|
D|--3\5~-4-5-----5-4-5-4-5-----5-4-5-4-2-2-0---0-----------|
A|-------------------------------------------4----5-5-7-7--|
E|---------------------------------------------------------|

~REFRAIN~

e|--3-3-3-3-3--5-5-5-5-5--5-5-5-5-5--7-7-7-7-7--|
H|--3-3-3-3-3--7-7-7-7-7--5-5-5-5-5--7-7-7-7-7--|
G|--4-4-4-4-4--7-7-7-7-7--6-6-6-6-6--8-8-8-8-8--|
D|--5-5-5-5-5--7-7-7-7-7--7-7-7-7-7--9-9-9-9-9--|
A|--5-5-5-5-5--5-5-5-5-5--7-7-7-7-7--9-9-9-9-9--|
E|--3-3-3-3-3--5-5-5-5-5--5-5-5-5-5--7-7-7-7-7--|

e|--3-3-3-3-3--5-5-5-5-5--5-5-5--3-5-5--3-3-5-5--|
H|--3-3-3-3-3--7-7-7-7-7--5-5-5--3-5-5--3-3-5-5--|
G|--4-4-4-4-4--7-7-7-7-7--6-6-6--4-6-6--4-4-6-6--|
D|--5-5-5-5-5--7-7-7-7-7--7-7-7--5-7-7--5-5-7-7--|
A|--5-5-5-5-5--5-5-5-5-5--7-7-7--5-7-7--5-5-7-7--|
E|--3-3-3-3-3--5-5-5-5-5--5-5-5--3-5-5--3-3-5-5--|

e|--3-3-3-3-3--5-5-5-5-5--5-5-5-5-5--7-7-7-7-7--|
H|--3-3-3-3-3--7-7-7-7-7--5-5-5-5-5--7-7-7-7-7--|
G|--4-4-4-4-4--7-7-7-7-7--6-6-6-6-6--8-8-8-8-8--|
D|--5-5-5-5-5--7-7-7-7-7--7-7-7-7-7--9-9-9-9-9--|
A|--5-5-5-5-5--5-5-5-5-5--7-7-7-7-7--9-9-9-9-9--|
E|--3-3-3-3-3--5-5-5-5-5--5-5-5-5-5--7-7-7-7-7--|

e|--3-3-3-3-3--5-5-5-5-5--5-5-5--3-5-5--|
H|--3-3-3-3-3--7-7-7-7-7--5-5-5--3-5-5--|
G|--4-4-4-4-4--7-7-7-7-7--6-6-6--4-6-6--|
D|--5-5-5-5-5--7-7-7-7-7--7-7-7--5-7-7--|
A|--5-5-5-5-5--5-5-5-5-5--7-7-7--5-7-7--|
E|--3-3-3-3-3--5-5-5-5-5--5-5-5--3-5-5--|

~OUTRO~

e|---------------|
H|---------------|
G|--7-5-5-6-9-11-|
D|---------------|
A|--5-3-3-4-7-9--|
E|---------------|

Tabbed by Dante
Related for Pied Piper tab
Advertisement will be closed in 10 seconds