Song name
# A B C D E F G H I J K L M N O P Q R S T U V W X Y Z

Pinback - Penelope tab

Help us improve GuitareTab! Take a short survey!
Tabbed by: ohhh shoot
Email: www.myspace.com/ohshoot_itserik

Tuning: standard!

key:

~ - let ring
h - hammer on

Main riff:
e|---------0~--------------------------------------|
B|---------------------------------0---------------|
G|------7-----7----------------7------7------------|
D|----5--5--5------x3--------5--5---5--------------|
A|-5h7-------------------5h7-----------------------|
E|-------------------------------------------------|


bridge: (part 1)
e|------------------------------------------------------------------------|
B|------------------------------------------------------------------------|
G|--4-4-4-4-4-4-4-5-5-4-4---------0~--------------------------0--0--------|
D|--------------------------4---4-----0-0-0-0-0---0-0-0-0-0--4--4---------|
A|------------------------7---7------------------2~-----------------------|
E|------------------------------------------------------------------------|

(part 2)
e|-------------------------------------------------------------------------------|
B|-------------------------------------------------------------------------------|
G|---4~----0---0--5~--0--7~---0--------0--0--------------------------------------|
D|-------4---4-------4-------4----2~--4--4----1~--0--1---------------------------|
A|-------------------------------------------------------------------------------|
E|-------------------------------------------------------------------------------|


=--structure--=

-main riff: x13
-bridge: x2
-main riff: x9
-bridge: until fade out

theres something played on top of the bridge at the end
but i'm poooped, that took way too long.
i'll come back later.
but your comments about it are welcomed! haha
Related for Penelope tab