Song name
# A B C D E F G H I J K L M N O P Q R S T U V W X Y Z

Pinback - Glide tab

-------------------------------------------------------------------------------
                             GLIDE - Pinback
-------------------------------------------------------------------------------
Tabbed by: Justin       
E-mail: sdjustinr@gmail.com
Notes: Played fast. I hope you find it useful.

Tuning: Drop D (D A D G B E)

 intro/verse:
   |         |        |       |  
e|--------------------------------------|
B|.------5\3---3h0----0-----1-----1----.|
G|----------------------0-----0-----0---|
D|-----2------------0-----2-----2-------|
A|.--3-------3-------------------------.|
D|--------------------------------------|
   
 
guitar 1:
   |       |     |       |       |        |        |       |         
e|----------------------------------------------------------------|
B|----------------------------------------------------------------|
G|----------------------------------------------------------------|
D|-7-7-7-7-7h9---5-5-5-5-5h7-----4--------------------------------|
A|-0-0-0-0-0---------------------5--------------------------------|
D|---------------5-5-5-5-5-------0--------------------------------|
   
guitar 2:
   |       |       |       |       |       |       |     |
e|--------------------------------------------------------------|
B|--------------------------------------------------------------|
G|--------------------------------------------------------------|
D|-----7-----9--7------5-----7--5------4-----4------------------|
A|---7---7-----------5---5-----------5---5------5-----5------5--|
D|-7-------7-------5-------5-------0-------0-------0-----0------|


guitar 1:
     |       |      |       |       |       |      |      |
e|--------------------------------------------------------------|
B|.------------------------------------------------------------.|
G|--------------------------------------------------------------|
D|---9-9-9-9----7-7-7-7-----5-5-----4-4-4-4----4-4-4-4----------|
A|.--7-7-7-7----5-5-5-5-----5-5-----5-5-5-5----5-5-5-5---------.|
D|---7-7-7-7----5-5-5-5-----5-5-----0-0-0-0----0-0-0-0----------|
   "Feed your monster..."

guitar 2:
     |     |      |     |     |     |     |     |
e|-----------------------------------------------------|
B|.---------------------------------------------------.|
G|-----------------------------------------------------|
D|------9--7---4--2-----2--0-----4-----4-----4-----4---|
A|.--0---------------0--------0-----0-----0-----0-----.|
D|-----------------------------------------------------|

************************************

| /   slide up
| \   slide down
| h   hammer-on
| p   pull-off
| ~   vibrato
| +   harmonic
| x   Mute note
| b   Bend
| pb  Pre-bend
| br  Bend release
| pbr Pre-bend release
Tap to rate this tab
# A B C D E F G H I J K L M N O P Q R S T U V W X Y Z