Guitaretab - guitar tabs
Song name
# A B C D E F G H I J K L M N O P Q R S T U V W X Y Z

Pink Floyd - Lucifer Sam tab

Lucifer Sam
By Pink Floyd

|----|--------------------------------|
|----|--------------------------------|     
|----|--------------------------------|     
|----|--------------------------------|     x4
|----|------4-4-----3-----2-2-----0---|     
|-0--|--0-2------2-----2-------2------|

|-------------------------------------|
|-------------------------------------|
|-------------------------------------|
|-------2-2-----1-----0-0-------------|     x2
|-0-1-2------2-----2-------2--4-------|
|-------------------------------------|
                          
|-------------------------------------|
|-------------------------------------|     
|-------------------------------------|     
|-------------------------------------|     x2
|-------4-4-----3-----2-2-----0-------|     
|---0-2------2-----2-------2----------|



F#m               G
Lucifer Sam, siam cat.
B
Always sitting by your side
       E
Always by your side.
C                      G       D
That cat's something I can't explain.

|-------------------------------------|
|-------------------------------------|     
|-------------------------------------|     
|-------------------------------------|     x4
|------4-4-----3-----2-2-----0--------|     
|--0-2------2-----2-------2-----------|
[ Tab from: http://www.guitaretab.com/p/pink-floyd/14699.html ]
|-------------------------------------|
|-------------------------------------|
|-------------------------------------|
|-------2-2-----1-----0-0-------------|     x2
|-0-1-2------2-----2-------2--4-------|
|-------------------------------------|
                          
|-------------------------------------|
|-------------------------------------|     
|-------------------------------------|     
|-------------------------------------|     
|---4-4-----3-----2-2-----0-----------|     
|--------2-----2-------2--------------|

|-------------------------------------|
|-------------------------------------|     
|-------------------------------------|     
|-------------------------------------|     
|--------4-4-----3-----2-2-----0------|     
|---0-2-------2-----2-------2---------|


F#m                      G
Jennifer Gentle you're a witch.
B
You're the left side

He's the right side.
E
Oh, no!
C                      G       D
That cat's something I can't explain.


F#m B G D B F#m  (listen to the song for the chord changes)


F#m           G
Lucifer go to sea.
B
Be a hip cat, be a ship's cat.
E
Somewhere, anywhere.
C                      G       D
That cat's something I can't explain.

|-------------------------------------|
|-------------------------------------|     
|-------------------------------------|     
|-------------------------------------|     x4
|-------4-4-----3-----2-2-----0-------|     
|---0-2------2-----2-------2----------|

|-------------------------------------|
|-------------------------------------|
|-------------------------------------|
|-------2-2-----1-----0-0-------------|     x2
|-0-1-2------2-----2-------2--4-------|
|-------------------------------------|
                          
|-------------------------------------|
|-------------------------------------|     
|-------------------------------------|     
|-------------------------------------|     x2
|-------4-4-----3-----2-2-----0-------|     
|---0-2------2-----2-------2----------|

F#m                    G
Night prowling sifting sand.
B
Padding around on the ground.
               E
He'll be found when you're around.
C                      G       D
That cat's something I can't explain.




Shine on Syd, shine on.

Related for Lucifer Sam tab
Advertisement will be closed in 10 seconds