Guitaretab - guitar tabs
Song name
# A B C D E F G H I J K L M N O P Q R S T U V W X Y Z

Pink Floyd - One Of The Few tab

Song Name: One Of The Few
Artist: Pink Floyd
Album: The Final Cut

e|------6---6---5---5---3---3------------8---8---6---6---3---3---------|
B|------------3---3---3---3---6\3-3-3------------------3---3---6\3-3-3-|
G|----7---7----------------------------7---7---7---7-------------------|
D|-0--0-------0-------0---------0------0-------0-------0---------0-----|
A|---------------------------------------------------------------------|
E|---------------------------------------------------------------------|
[ Tab from: http://www.guitaretab.com/p/pink-floyd/14706.html ]
e|---6---6---5---5---3---3---------------8---8---6---6---3---3-------------|
B|---------3---3---3---3---6\3---3---3-----------------3---3---6\3---3---3-|
G|-7---7-------------------------------7---7---7---7-----------------------|
D|-0-------0-------0---------0-0---0---0-------0-------0---------0-0---0---|
A|-------------------------------------------------------------------------|
E|-------------------------------------------------------------------------|

e|---6---6---5---5---3---3-------------------8---8---6---6---3---3-------|
B|---------3---3---3---3---6\3---3---5---6-----------------3---3---6\3-3-|
G|-7---7-----------------------------------7---7---7---7-----------------|
D|-0-------0-------0---------0-0---0---0---0-------0-------0---------0---|
A|-----------------------------------------------------------------------|
E|-----------------------------------------------------------------------|
Related for One Of The Few tab
Advertisement will be closed in 10 seconds