Song name
# A B C D E F G H I J K L M N O P Q R S T U V W X Y Z

Pink Floyd - Mother tab

Tab by: Naminator
Date: 8/06/09
Artist: Pink Floyd

                                  Mother Solo At
                                     At 2:49

Legend:
1.Bend:       15b(17) [b] (Bend the 15 Fret full step)
2.Vibrato:    15~ [~]
3.Pull Off:   14p15 [p]
4.Hammer-On:  7h9 [h]
5.Slide Up:   7/9 [/]
6.Slide Down: 9\7 [\]
7.Release:    14b(16)r [r](Bend and then release to 14 fret)
8.Bend Down:  3bd         (Bend the string a little down)


e|---------------------------------------------|-------------------------------|
B|-----13b(15)--13b(15)--13p12--13-------------|-------------------------------|
G|--12-----------------------------------------|------5---5\4------------------|
D|---------------------------------14p13--14~--|-------------------------------|
A|---------------------------------------------|-2/7----7------5~--2-3-3bd--3--|
E|---------------------------------------------|-------------------------------|

e|-----------------------------------------------------------|
B|---------------------------------------------13------------|
G|--2/12--14-14b(16)--14b(16)--14b(16)--14p12----------------|
D|------------------------------------------------14p13--14~-|
A|-----------------------------------------------------------|
E|-----------------------------------------------------------|

e|--10-12b(14)--10~--8-10(b12)--8~--8p7--8p7-------------|
B|--10---------------8-----------------------8-----------|
G|--11---------------9-------------------------7-5\4-----|
D|----------------------------------------------------5~-|
A|-------------------------------------------------------|
E|-------------------------------------------------------|


Hope you like it and enjoy it!
Tap to rate this tab
# A B C D E F G H I J K L M N O P Q R S T U V W X Y Z