Song name
# A B C D E F G H I J K L M N O P Q R S T U V W X Y Z

Pink - Beam Me Up tab

Pink - Beam Me Up

So this is only my second tab. I'm sure the verses and intro are completely correct, but
I'm not so sure about the chords in the chorus and bridge, so if any of you could
correct those and tell me so I can fix my mistakes, it'd be appreciated. So now, enjoy 
this beautiful song:)!

Capo on 5th fret, standard tuning

Intro
   G              C                G               C
e|-----------------------------------------------------------------|
B|-----------------------1-------------0---------------------------|
G|-------0------------0----0---------0----0----------0-------------|
D|-----0---0-------2---------2-----0--------0------2---------------|
A|---2------2----3-------------3--------------0--3-----------------|
E|-3----------3------------------3---------------------------------|

Verse 1
   G              C                G               C
e|-----------------------------------------------------------------|
B|-----------------------1-------------0---------------1-----------|
G|-------0------------0----0---------0----0----------0---0---------|
D|-----0---0-------2---------2-----0--------0------2-------2-------|
A|---2------2----3-------------3--------------0--3-----------3-----|
E|-3----------3------------------3---------------------------------|

     Em               F     C                F     C
e|-------------------1-----0---------------1---0-------------------|
B|---------0---------1-----1---------------1---1-------------------|
G|-------0---0-------2-----0---------------2---0-------------------|
D|-----2------2------3-----2---------------3---2-------------------|
A|---2----------2----3-----3---------------3---3-------------------|
E|-------------------1-----0---------------1---0-------------------|

   G              C                G               C
e|-----------------------------------------------------------------|
B|-----------------------1-------------0---------------1-----------|
G|-------0------------0----0---------0----0----------0---0---------|
D|-----0---0-------2---------2-----0--------0------2-------2-------|
A|---2------2----3-------------3--------------0--3-----------3-----|
E|-3----------3------------------3---------------------------------|

     Em               F     C                F     C
e|-------------------1-----0---------------1---0-------------------|
B|---------0---------1-----1---------------1---1-------------------|
G|-------0---0-------2-----0---------------2---0-------------------|
D|-----2------2------3-----2---------------3---2-------------------|
A|---2----------2----3-----3---------------3---3-------------------|
E|-------------------1-----0---------------1---0-------------------|



Chorus
                  G    C
Could you beam me up,
          G                    D
Give me a minute, I don't know what I'd say in it
Em                   A                      C            D
Probably just stare, happy just to be there holding your face
        G   C
Beam me up,
          G                 D
Let me be lighter, tired of being a fighter,
  Em    A           C
I think, a minutes enough,

Just beam me

   up

   G              C                G               C
e|-----------------------------------------------------------------|
B|-----------------------1-------------0---------------1-----------|
G|-------0------------0----0---------0----0----------0---0---------|
D|-----0---0-------2---------2-----0--------0------2-------2-------|
A|---2------2----3-------------3--------------0--3-----------3-----|
E|-3----------3------------------3---------------------------------|

Verse 2

   G              C                G               C
e|-----------------------------------------------------------------|
B|-----------------------1-------------0---------------1-----------|
G|-------0------------0----0---------0----0----------0---0---------|
D|-----0---0-------2---------2-----0--------0------2-------2-------|
A|---2------2----3-------------3--------------0--3-----------3-----|
E|-3----------3------------------3---------------------------------|

     Em               F     C                F     C
e|-------------------1-----0---------------1---0-------------------|
B|---------0---------1-----1---------------1---1-------------------|
G|-------0---0-------2-----0---------------2---0-------------------|
D|-----2------2------3-----2---------------3---2-------------------|
A|---2----------2----3-----3---------------3---3-------------------|
E|-------------------1-----0---------------1---0-------------------|

   G              C                G               C
e|-----------------------------------------------------------------|
B|-----------------------1-------------0---------------1-----------|
G|-------0------------0----0---------0----0----------0---0---------|
D|-----0---0-------2---------2-----0--------0------2-------2-------|
A|---2------2----3-------------3--------------0--3-----------3-----|
E|-3----------3------------------3---------------------------------|

     Em               F     C                F     C
e|-------------------1-----0---------------1---0-------------------|
B|---------0---------1-----1---------------1---1-------------------|
G|-------0---0-------2-----0---------------2---0-------------------|
D|-----2------2------3-----2---------------3---2-------------------|
A|---2----------2----3-----3---------------3---3-------------------|
E|-------------------1-----0---------------1---0-------------------|

Chorus
                  G    C
Could you beam me up,
          G                    D
Give me a minute, I don't know what I'd say in it
Em                   A                      C            D
Probably just stare, happy just to be there holding your face
        G   C
Beam me up,
          G                 D
Let me be lighter, tired of being a fighter,
  Em    A           C
I think, a minutes enough,
             G    C   G   C
Just beam me up.
Bridge

F     C                G
In my head, I see your baby blues
Bb/Bb       F           Ab/Ab       C(?)
I hear your voice and I, I break in two and now there's

F#/F#  C        G
One of me, with you

A, D, A, D, A, D, A, D
          A                         D
So when I need you can I send you a sign
A                     D
I'll burn a candle and turn off the lights
F#/F#m               G         D
I'll pick a star and watch you shine


Chorus (key change)

             A    D
Just beam me up,
          A                    E
Give me a minute, I don't know what I'd say in it
F#/F#m               B                       D            E
Probably just stare, happy just to be there, holding your face
        A   D
Beam me up,
          A                 E
Let me be lighter, tired of being a fighter,
  F#/F#m B          D
I think, a minutes enough,
        A   D
Beam me up
        A   D
Beam me up
        A   D
Beam me up
                 A
Could you beam me up
Tap to rate this tab
# A B C D E F G H I J K L M N O P Q R S T U V W X Y Z