Song name
# A B C D E F G H I J K L M N O P Q R S T U V W X Y Z

Pixies - Break My Body tab

Song:Break My Body
Band:Pixies
Album:Surfer Rosa
Transcribed by:Peter Mowitt


 Guitar One | Part I (Play 2 Times)
e[------------------------------------]
B[------------------------------------]
G[-9-9-9-9-9-9-9-9-9-9-9-9-9-9--10-10-]
D[------------------------------------]
A[-7-7-7-7-7-7-7-7-7-7-7-7-7-7---8--8-]
E[------------------------------------]

  Part II
e[-----------------------------------]
B[-----------------------------------]
G[-9-9-9-9-9-9-9-9-9-9-9-9-9-9-9-9---]
D[-----------------------------------]
A[-7-7-7-7-7-7-7-7-7-7-7-7-7-7-7-7---]
E[-----------------------------------]

  0:08 | Guitar Two | Part III (Played occasionally throughout the whole song)
e[--------------]
B[--------------]
G[-----------0~-]
D[-----------0~-]
A[-----------2~-]
E[-0/6-6-6~-\3~-]

  Continue to Play Parts I, II, and III until...

  0:37 | Guitar One | Part IV
e[-----------12---10~------|-------12-10~------------10~]
B[----------------10~------|----------10~------------10~]
G[-------------------------|----------------------------]
D[-------------------------|----------------------------]
A[-------------------------|----------------------------]
E[-------------------------|----------------------------]

  0:55 | Part V
e[-13-12-10-----------13-12-10-----------13-12-10----------------------------------]
B[----------13~12-10~----------13~12-10~----------13~12-10~10-\9-9-\8-8-\7-7-\6----]
G[------------------------------------------------------------------------------9~-]
D[---------------------------------------------------------------------------------]
A[---------------------------------------------------------------------------------]
E[---------------------------------------------------------------------------------]

  1:02 | Part VI (Play 2 Times)
e[-----------------------------------]
B[-----------------------------------]
G[-9-9-9-9-9-9-9-9-9-9-9-9-9-9-10-10-]
D[-----------------------------------]
A[-----------------------------------]
E[-----------------------------------]

  Part VI (Cont.)                    1:25
e[---------------------------------------11b13rb11~11~12~-]
B[--------------------------------------------------------]
G[-9-9-9-9-9-9-9-9-9-9-9-9-9-9-9-9-%-9--------------------]
D[-------------------------------------9------------------]
A[--------------------------------------------------------]
E[--------------------------------------------------------]

  1:28 | Play Part IV

  1:45 | Play Part V (Slightly different ending)

  1:52 | Part VII
e[-------------------------]
B[-------------------------]
G[-------------------------]
D[-------------------------]
A[-8~---12~12~8~---12~12~8~]
E[-6~---10~10~6~---10~10~6~]

  2:00 | Part VIII
e[------------]
B[------------]
G[------------]
D[------------]
A[-10---8---3-]
E[--8---6---1-]

Listen to song to get right number of times and stuff
Tap to rate this tab
# A B C D E F G H I J K L M N O P Q R S T U V W X Y Z