Song name
# A B C D E F G H I J K L M N O P Q R S T U V W X Y Z

Pixies - Hey tab

--------------------------------------------------------------|
--------------------------------------------------------------|
--7-------------6---------------------------------------------|     X2
----9-7-----------7-------------------------------------------|
--------9-7h8h9-----9--7-7h8h9--7-5-----------7-5-------------|
------------------------------------7-5-5h6h7-----7-5-5h6h7---|



---------------------------10-10-7-----------------10-10-7------------|
-----------------------------------10-----5-5h6h7----------10-5-5h6h7-|
--7-----7-9-10B-----7-9-11--------------------------------------------|
----------------------------------------------------------------------|
----------------------------------------------------------------------|
----------------------------------------------------------------------|



--------------------------------------------------------------|
--6b--------6b--------6b-----6b6b6b6b6b6b6b6b-----------------|
--------------------------------------------------------------|
--------------------------------------------------------------|
--------------------------------------------------------------|
--------------------------------------------------------------|
Tap to rate this tab
 
# A B C D E F G H I J K L M N O P Q R S T U V W X Y Z