Pixies - Isla De Encanta tab

-------------------------------------------------------------------------------
			     ISLA DE ENCANTA - Pixies
-------------------------------------------------------------------------------
Tabbed by:
Email:

Tuning: Standard  (EADGBE)

Verse Chords -Due to the nature of the song I haven't tabbed out exactly what is played, 
listen
to the song and find out what works for you.

e|---------------------------------------------------------------------------|
B|---------------------------------------------------------------------------|
G|---------------------------------------------------------------------------|
D|--9-9-9-9-x-x-8-x-7-x-10-10------------------------------------------------|
A|--9-9-9-9-x-x-8-x-7-x-10-10------------------------------------------------|
E|--7-7-7-7-x-x-6-x-5-x-8--8-------------------------------------------------|

Chorus Chords

e|---------------------------------------------------------------------------|
B|---------------------------------------------------------------------------|
G|-----------------9-9-9-9-9-9-9-9-------------------------------------------|
D|-7-7-7-7-7-7-7-7-9-9-9-9-9-9-9-9-9-----------------------------------------|
A|-7-7-7-7-7-7-7-7-7-7-7-7-7-7-7-7-9-----------------------------------------|
E|-5-5-5-5-5-5-5-5-----------------7-----------------------------------------|

Bridge Rhythm - I'm not actually sure about this bit, but a) it sounds right to me, and 
you could
probably play any three of the four verse chords and it'll sound good.

e|---------------------------------------------------------------------------|
B|---------------------------------------------------------------------------|
G|---------------------------------------------------------------------------|
D|--9-8-10-------------------------------------------------------------------|
A|--9-8-10-------------------------------------------------------------------|
E|--7-6-8--------------------------------------------------------------------|


Bridge Lead - Do it as tremolo. It doesn't matter where you start, as long as you finish 
17. Make
sure you don't hit 21 exactly on the bend, the closer the better but you should be able 
here the
clash.

e|---------------------------------------------------------------------------|
B|-1/17----------------------------------------------------------------------|
G|-3/19^(21)-----------------------------------------------------------------|
D|---------------------------------------------------------------------------|
A|---------------------------------------------------------------------------|
E|---------------------------------------------------------------------------|
Tap to rate this tab
 
# A B C D E F G H I J K L M N O P Q R S T U V W X Y Z