Song name
# A B C D E F G H I J K L M N O P Q R S T U V W X Y Z

Placebo - Lazarus tab

Help us improve GuitareTab! Take a short survey!
Intro/Verse:

(version 1)
e|--------------------------------------------------------------------------|
B|--------13-------13-------13-------13-------13-------13-------13----------|
G|-----14-------14-------14-------14-------14-------14-------14-------------|
D|--15-------15-------15-------15-------14-------14-------14----------------|
A|--------------------------------------------------------------------------|
E|--------------------------------------------------------------------------|


(version2)
e|--------8-------8-------8-------8------8------8------8------8-------------|
B|-----10------10------10------10-----10-----10-----10-----10---------------|
G|--10------10------10------10------9------9------9------9------------------|
D|--------------------------------------------------------------------------|
A|--------------------------------------------------------------------------|
E|--------------------------------------------------------------------------|


(version 3)
e|--------------------------------------------------------------------------|
B|--------------------------------------------------------------------------|
G|-------17-------17-------17-------17-------17-------17-------17-------17--|
D|----19-------19-------19-------19-------19-------19-------19-------19-----|
A|-20-------20-------20-------20-------19-------19-------19-------19--------|
E|--------------------------------------------------------------------------|


Chorus:

   F5          A5
e|---------------------------------|
B|---------------------------------|
G|---------------------------------|
D|-333333333333/777777777777-------|
A|-333333333333/777777777777-------|
E|-111111111111/555555555555-------|
Related for Lazarus tab