Song name
# A B C D E F G H I J K L M N O P Q R S T U V W X Y Z

Placebo - Second Sight tab

-------------------------------------------------------------------------------
			     SECOND SIGHT - Placebo
-------------------------------------------------------------------------------
Tabbed by: Luis Gustavo Hernández Collado
Email: ltavo_87@hotmail.com

Tuning: EADGBe

Intro
e|-----------------------|
B|-----------------------|
G|-----------------------| X4
D|-1111111110--1010--10--|
A|-9-9-9-9-8---8--8--8---|
E|-----------------------|

Verse 1
(walk away to save your face, yo never were a genius...)
e|-----------------------|
B|-----------------------|
G|-----------------------| X8
D|-1111111110--1010--10--|
A|-9-9-9-9-8---8--8--8---|
E|-----------------------|

Chorus 1
(yes it's just our second night, but i would break backsides for you...)
e|-------------------|
B|-------------------|
G|---------666666666-| X4
D|-44444444666666666-|
A|-44444444444444444-|
E|-22222222----------|

Verse 2
(walk away to save your face, yo never were an actor...)
e|-----------------------|
B|-----------------------|
G|-----------------------| X8
D|-1111111110--1010--10--|
A|-9-9-9-9-8---8--8--8---|
E|-----------------------|

Chorus 2
(yes it's just our second night, but i would break backsides for you...)
e|-------------------|
B|-------------------|
G|---------666666666-| X4
D|-44444444666666666-|
A|-44444444444444444-|
E|-22222222----------|

(cause I'm cursed with second sight so...)
e|---------------------6-6-6-6-6666---------|
B|-7-7-7-7-7777-6-4-----------------7-6-4---|
G|------------------6--3-3-3-3-3333-------6-| X2
D|-4-4-4-4-4444-3-1-----------------4-3-1---|
A|------------------4---------------------4-|
E|------------------------------------------|

Verse 3
(third verse, same as the first)

 No guitar

(walk away to save your face, you never were a genius, walk away to save your face, you 
were, you never were!)
w/heavy distortion
e|------------------------|
B|------------------------|
G|------6----------6------| X2
D|-4----6-----4----6------|
A|-4----4r----4----4r-----|
E|-2r---------2r----------|

Chorus 3
(yes it's just our second night, but i would break backsides for you...)
e|-------------------|
B|-------------------|
G|---------666666666-| X4
D|-44444444666666666-|
A|-44444444444444444-|
E|-22222222----------|

(walk away...)
e|---------------------6-6-6-6-6666---------|
B|-7-7-7-7-7777-6-4-----------------7-6-4---|
G|------------------6--3-3-3-3-3333-------6-| X4
D|-4-4-4-4-4444-3-1-----------------4-3-1---|
A|------------------4---------------------4-|
E|------------------------------------------|

End on
(you never...)
e|----|
B|----|
G|--6-|
D|----|
A|--4-|
E|----|
Tap to rate this tab
# A B C D E F G H I J K L M N O P Q R S T U V W X Y Z