Song name
# A B C D E F G H I J K L M N O P Q R S T U V W X Y Z

Placebo - Battle For The Sun tab

-------------------------------------------------------------------------------
			     SONG NAME - Band Name
-------------------------------------------------------------------------------
Tabbed by: Mojofrusciante
Email: mojofrusciante@web.de

Intro and first Verse:

Tuning: Standard

e|-----------------------------------------------------------------------------|
B|-----------------------------------------------------------------------------|
G|-----------------------------------------------------------------------------|
D|----------------14------------------------15---------------------------------|
A|-------12----12------12---12-----12----12-----12---12\-----------------------|
E|-------10----10------10---10-----10----10-----10---13\-----------------------|

e|-----------------------------------------------------------------------------|
B|-----------------------------------------------------------------------------|
G|-----------------------------------------------------------------------------|
D|-----------------------------------------------------------------------------|
A|----8---8---8---8---5-7-8-8---8---11-----------------------------------------|
E|----6---6---6---6---6-6-6-6---6---10-----------------------------------------|

Chorus something like this:

C5    Bb5         D5          Bb5
Dream Brother, my killer, my lover


| /  slide up
| \  slide down
| h  hammer-on
| p  pull-off
| ~  vibrato
| +  harmonic
| x  Mute note
===============================================================================
Tap to rate this tab
# A B C D E F G H I J K L M N O P Q R S T U V W X Y Z