Song name
# A B C D E F G H I J K L M N O P Q R S T U V W X Y Z

Placebo - Post Blue tab

POST BLUE by PLACEBO

MEDS is a phenomenon. This is my first attempt at tabbing, and I had an all time high with this song. 

INTRO

e|-----------------------------------|
B|---------0--------------0---0------|
G|----8--8----6-0---6-8-6---8--------|  X2
D|-6--------------8------------------|
A|-----------------------------------|
E|-----------------------------------|

e|-----------------------------------|
B|---0---0---0---0---0---0---0---0---|
G|-------------------------6---------|  X2
D|-6---8---6---8---6---8-------8---6-|
A|-----------------------------------|
E|-----------------------------------|

It's in the water baby, it's in the pills that bring you down
It's in the water baby, it's in your bag of golden brown
It's in the water baby, it's in your frequency
It's in the water baby, it's between you and me

e|-----------------------------------|
B|---0---0---0---0---0---0---0---0---|
G|-------------------------6---------|  X2
D|-6---8---6---8---6---8-------8---6-|
A|-----------------------------------|
E|-----------------------------------|

It's in the water baby, it's in the pills that pick you up
It's in the water baby, it's in the special way we fuck
It's in the water baby, it's in your family tree
It's in the water baby, it's between you and me

e|-----------------------------------|
B|---0---0---0---0---0---0---0---0---|
G|-------------------------6---------|  
D|-6---8---6---8---6---8-------8---6-|
A|-----------------------------------|
E|-----------------------------------|
Bite the hand that feeds

e|-----------------------------------|
B|---0---0---0---0---0---0---0---0---|
G|-------------------------6---------|  
D|-6---8---6---8---6---8-------8---6-|
A|-----------------------------------|
E|-----------------------------------|
Tap the vein that bleeds

e|-----------------------------------|
B|---0---0---0---0---0---0---0---0---|
G|-------------------------6---------|  
D|-6---8---6---8---6---8-------8---6-|
A|-----------------------------------|
E|-----------------------------------|
Down on my bended knees

e|-----------------------------------|
B|---0---0---0---0---0---0---0---0---|
G|-------------------------6---------|  
D|-6---8---6---8---6---8-------8---6-|
A|-----------------------------------|
E|-----------------------------------|
I'll break the back of love for you, I'll break the back of love for you.

e|-----------------------------------|
B|---------0--------------0---0------|
G|----8--8----6-0---6-8-6---8--------|  
D|-6--------------8------------------|
A|-----------------------------------|
E|-----------------------------------|
I'll break the back of love for you

e|-----------------------------------|
B|---------0--------------0---0------|
G|----8--8----6-0---6-8-6---8--------|  
D|-6--------------8------------------|
A|-----------------------------------|
E|-----------------------------------|
I'll break the back of love for you

It's in the water baby, it's in the pills that bring you down
It's in the water baby, it's in your bag of golden brown
It's in the water baby, it's in your frequency
It's in the water baby, it's between you and me

e|-----------------------------------|
B|---0---0---0---0---0---0---0---0---|
G|-------------------------6---------|  
D|-6---8---6---8---6---8-------8---6-|
A|-----------------------------------|
E|-----------------------------------|
Bite the hand that feeds

e|-----------------------------------|
B|---0---0---0---0---0---0---0---0---|
G|-------------------------6---------|  
D|-6---8---6---8---6---8-------8---6-|
A|-----------------------------------|
E|-----------------------------------|
Tap the vein that bleeds

e|-----------------------------------|
B|---0---0---0---0---0---0---0---0---|
G|-------------------------6---------|  
D|-6---8---6---8---6---8-------8---6-|
A|-----------------------------------|
E|-----------------------------------|
Down on my bended knees

e|-----------------------------------|
B|---0---0---0---0---0---0---0---0---|
G|-------------------------6---------|  
D|-6---8---6---8---6---8-------8---6-|
A|-----------------------------------|
E|-----------------------------------|
I'll break the back of love for you, I'll break the back of love for you.

e|-----------------------------------|
B|---------0--------------0---0------|
G|----8--8----6-0---6-8-6---8--------|  X4
D|-6--------------8------------------|
A|-----------------------------------|
E|-----------------------------------|
I'll break the back of love for you

I'll break the back of love for you
I'll break the back of love for you









Tap to rate this tab
 
# A B C D E F G H I J K L M N O P Q R S T U V W X Y Z