Song name
# A B C D E F G H I J K L M N O P Q R S T U V W X Y Z

Plain White Ts - Sad Story tab

Plain White T's
Sad Story
All That We Needed

/   = slide up
~   = let ring
\   = slide down
h   = hammer on
p   = pull off

Intro:
E-------------------------------------------12-|
B---13/15\13p12-13p12------13/15\13p12-13p12---|
G--------------------14------------------------|
D-15---------------------15--------------------|
A----------------------------------------------|
E----------------------------------------------|

Verse 1:
E----------------------------|
B----------------------------|
G----------------------------|
D-5-7-5-7--5-7-5-7--5-7-5-7--|
A----------------------------|
E----------------------------|

E---------------------------------------------|
B-----------------------------10-10-----10-10-|
G-10-10-10-10-10-10-10-10-9-9-------9-9-------|
D---------------------------------------------|
A---------------------------------------------|
E---------------------------------------------|

E---------------------------------------------|
B-----------------------------10-10-----------|
G-10-10-10-10-10-10-10-10-9-9-----------------|
D-----------------------------------10-10-7-7-|
A---------------------------------------------|
E---------------------------------------------|

E---------------------------------------------|
B-----------------------------10-10-----10-10-|
G-10-10-10-10-10-10-10-10-9-9-------9-9-------|
D---------------------------------------------|
A---------------------------------------------|
E---------------------------------------------|

Pre Chorus: 2x
E------------------------------------|
B------------------------------------|
G-7-7-10-10-7-7-10-10-----7-7----7-7-|
D---------------------9-9-----9-9----|
A------------------------------------|
E------------------------------------|

Chorus: 2x
E--------------------------------------------------|
B--------------------------------------------------|
G-9999999999999999-10101010101010101010101010101010
D-xxxxxxxxxxxxxxxx-xxxxxxxxxxxxxxxxxxxxxxxxxxxxxxxx
A-7777777777777777--8-8-8-8-8-8-8-8-8-8-8-8-8-8-8-8-|
E---------------------------------------------------|

E--------------------------------------------|
B--------------------------------------------|
G-5555555555555555-44444444-1313131313131313-|
D-xxxxxxxxxxxxxxxx-xxxxxxxx-xxxxxxxxxxxxxxxx
A-3333333333333333-22222222-1111111111111111-|
E--------------------------------------------|

Pre Verse:
E-------------------------------------------12-|
B---13/15\13p12-13p12------13/15\13p12-13p12---|
G--------------------14------------------------|
D-15---------------------15--------------------|
A----------------------------------------------|
E----------------------------------------------|

Verse 2:
E---------------------------------------------|
B-----------------------------10-10-----10-10-|
G-10-10-10-10-10-10-10-10-9-9-------9-9-------|
D---------------------------------------------|
A---------------------------------------------|
E---------------------------------------------|

E---------------------------------------------|
B-----------------------------10-10-----------|
G-10-10-10-10-10-10-10-10-9-9-----------------|
D-----------------------------------10-10-7-7-|
A---------------------------------------------|
E---------------------------------------------|

E---------------------------------------------|
B-----------------------------10-10-----10-10-|
G-10-10-10-10-10-10-10-10-9-9-------9-9-------|
D---------------------------------------------|
A---------------------------------------------|
E---------------------------------------------|

Pre Chorus: 2x
E------------------------------------|
B------------------------------------|
G-7-7-10-10-7-7-10-10-----7-7----7-7-|
D---------------------9-9-----9-9----|
A------------------------------------|
E------------------------------------|

Chorus: 2x
E--------------------------------------------------|
B--------------------------------------------------|
G-9999999999999999-10101010101010101010101010101010
D-xxxxxxxxxxxxxxxx-xxxxxxxxxxxxxxxxxxxxxxxxxxxxxxxx
A-7777777777777777--8-8-8-8-8-8-8-8-8-8-8-8-8-8-8-8-|
E---------------------------------------------------|

E--------------------------------------------|
B--------------------------------------------|
G-5555555555555555-44444444-1313131313131313-|
D-xxxxxxxxxxxxxxxx-xxxxxxxx-xxxxxxxxxxxxxxxx
A-3333333333333333-22222222-1111111111111111-|
E--------------------------------------------|

Break:
E--------------------------------------------------|
B--------------------------------------------------|
G-10101010101010101010101010101010-9999999999999999
D-xxxxxxxxxxxxxxxxxxxxxxxxxxxxxxxx-xxxxxxxxxxxxxxxx
A--8-8-8-8-8-8-8-8-8-8-8-8-8-8-8-8-7777777777777777-|
E---------------------------------------------------|

E---------------------------------|
B---------------------------------|
G-12121212121212121212121212121212
D-xxxxxxxxxxxxxxxxxxxxxxxxxxxxxxxx
A-10101010101010101010101010101010
E---------------------------------

Solo:
E-12~--12~--12~-------------------------15~-15~-15~-16~-16~-16~-|
B----------------13h15---13h15----13h15-------------------------|
G----------------------12------12-------------------------------|
D---------------------------------------------------------------|
A---------------------------------------------------------------|
E---------------------------------------------------------------|

Verse 3:
E---------------------------------------------|
B-----------------------------10-10-----10-10-|
G-10-10-10-10-10-10-10-10-9-9-------9-9-------|
D---------------------------------------------|
A---------------------------------------------|
E---------------------------------------------|

E---------------------------------------------|
B-----------------------------10-10-----------|
G-10-10-10-10-10-10-10-10-9-9-----------------|
D-----------------------------------10-10-7-7-|
A---------------------------------------------|
E---------------------------------------------|

E---------------------------------------------|
B-----------------------------10-10-----10-10-|
G-10-10-10-10-10-10-10-10-9-9-------9-9-------|
D---------------------------------------------|
A---------------------------------------------|
E---------------------------------------------|

E------------------------------------|
B------------------------------------|
G-7-7-10-10-7-7-10-10-----7-7----7-7-|
D---------------------9-9-----9-9----|
A------------------------------------|
E------------------------------------|

E---------------------------------------------|
B-----------------------------10-10-----10-10-|
G-10-10-10-10-10-10-10-10-9-9-------9-9-------|
D---------------------------------------------|
A---------------------------------------------|
E---------------------------------------------|

E---------------------------------------------|
B-----------------------------10-10-----------|
G-10-10-10-10-10-10-10-10-9-9-----------------|
D-----------------------------------10-10-7-7-|
A---------------------------------------------|
E---------------------------------------------|

E---------------------------------------------|
B-----------------------------10-10-----10-10-|
G-10-10-10-10-10-10-10-10-9-9-------9-9-------|
D---------------------------------------------|
A---------------------------------------------|
E---------------------------------------------|

Pre Chorus: 2x
E------------------------------------|
B------------------------------------|
G-7-7-10-10-7-7-10-10-----7-7----7-7-|
D---------------------9-9-----9-9----|
A------------------------------------|
E------------------------------------|

Chorus: 2x
E--------------------------------------------------|
B--------------------------------------------------|
G-9999999999999999-10101010101010101010101010101010
D-xxxxxxxxxxxxxxxx-xxxxxxxxxxxxxxxxxxxxxxxxxxxxxxxx
A-7777777777777777--8-8-8-8-8-8-8-8-8-8-8-8-8-8-8-8-|
E---------------------------------------------------|

E--------------------------------------------|
B--------------------------------------------|
G-5555555555555555-44444444-1313131313131313-|
D-xxxxxxxxxxxxxxxx-xxxxxxxx-xxxxxxxxxxxxxxxx
A-3333333333333333-22222222-1111111111111111-|
E--------------------------------------------|

Outro:
E-------------------------------------------12-|
B---13/15\13p12-13p12------13/15\13p12-13p12---|
G--------------------14------------------------|
D-15---------------------15--------------------|
A----------------------------------------------|
E----------------------------------------------|

E--------------------------------------|
B---13/15\13p12-13p12------13/15\13----|
G--------------------14-------------14-|
D-15---------------------15------------|
A--------------------------------------|
E--------------------------------------|

Wow. That's probably the hardest i worked on a song lol. I LOVE THIS SONG!!! i know this 
is right cuz i just spent a long time doing it lol and perfecting. Have fun with it! 
Email at Coldfry1@aol.com
Tap to rate this tab
# A B C D E F G H I J K L M N O P Q R S T U V W X Y Z