Song name
# A B C D E F G H I J K L M N O P Q R S T U V W X Y Z

Plain White Ts - Umbrella tab

---------------------------------------------------------------------
                      Umbrella - Plain White T's
---------------------------------------------------------------------
Tabbed by: Simon
E-mail: simon.riezebos@gmail.com

Tuning: C-F-Bb-Eb-G-C

Intro:

c----------------|----------------|----------------|----------------|
G----------------|----------------|----------------|----------------|
Eb----2-------2--|-----9-------9--|-----1--------1-|-----5-------5--|
Bb---------------|----------------|----------------|----------------|
F---3---3----3--3|---10-10--10--10|---2--2-----2---|---7--7-----7-7-|
C-1------1-1-----|-8-----8-8------|-0------0-0-----|-5------5-5-----|

(Play intro 2 times with verse 1)
Verse 1:
You have my heart, and we'll never be worlds apart, maybe in magazines, but you'll still 
my star,
'cause baby in the dark, you can't see shiny cars, that's when you'll need me there,
Withyou i'll always share,

because,

Pre-Chorus:

When the sun shines we'll shine together, I told you I'll be here forever,
said I'd always be your friend, took an oath gonna stick it out to the end, now that it's
rainin' more than ever, know that we'll still have each other, you can stand under my umbrella
you can stand under my umbrella,

c-1--1-11-1-11-1-|-3--3-33-3-33-3-|-0--0-00-0-00-0-|-5--5-55-5-55-5-|
G-1--1-22-2-22-2-|-5--5-55-5-55-5-|-0--0-00-0-00-0-|-5--5-55-5-55-5-|
Eb2--2-22-2-22-2-|-5--5-55-5-55-5-|-1--1-11-1-11-1-|-5--5-55-5-55-5-|
Bb3--3-33-3-33-3-|-5--5-55-5-55-5-|-2--2-22-2-22-2-|-7--7-77-7-77-7-| X2
F-3--3-33-3-33-3-|-3--3-33-3-33-3-|-2--2-22-2-22-2-|-7--7-77-7-77-7-|
C-1--1-11-1-11-1-|----------------|-0--0-00-0-00-0-|-5--5-55-5-55-5-|

Chorus:

(Play the pre-chorus, but palm-muted)
c-1--1-11-1-11-1-|-3--3-33-3-33-3-|-0--0-00-0-00-0-|-5--5-55-5-55-5-|
G-1--1-22-2-22-2-|-5--5-55-5-55-5-|-0--0-00-0-00-0-|-5--5-55-5-55-5-|
Eb2--2-22-2-22-2-|-5--5-55-5-55-5-|-1--1-11-1-11-1-|-5--5-55-5-55-5-|
Bb3--3-33-3-33-3-|-5--5-55-5-55-5-|-2--2-22-2-22-2-|-7--7-77-7-77-7-| X2
F-3--3-33-3-33-3-|-3--3-33-3-33-3-|-2--2-22-2-22-2-|-7--7-77-7-77-7-|
C-1--1-11-1-11-1-|----------------|-0--0-00-0-00-0-|-5--5-55-5-55-5-|

ella, ella, ey, ey, ey, under my umbrella, ella, ella, ey, ey, ey, under my umbrella, 
ella, ey, ey, ey
under my umbrella, ella, ella, ey, ey, ey,ey, ey-ey...

Verse 2:

(play once without words, then 2 times with the words)
c----------------|----------------|----------------|----------------|
G----------------|----------------|----------------|----------------|
Eb----2-------2--|-----9-------9--|-----1--------1-|-----5-------5--|
Bb---------------|----------------|----------------|----------------|
F---3---3----3--3|---10-10--10--10|---2--2-----2---|---7--7-----7-7-|
C-1------1-1-----|-8-----8-8------|-0------0-0-----|-5------5-5-----|

These fancy things, will never cut inbetween, you're part of my entity, here for infinityt
when the war has took its part, when the world has dealt its cards, if the hand is hard,
together we'll mend your heart,

because,

When the sun shines we'll shine together, I told you I'd be here forever,
said I'd always be your friend, took an oath gonna stick it out to the end, now that
rainin' more than ever, know that we'll still have each other, you can stand under my umbrella
you can stand under my umbrella,

c-1--1-11-1-11-1-|-3--3-33-3-33-3-|-0--0-00-0-00-0-|-5--5-55-5-55-5-|
G-1--1-22-2-22-2-|-5--5-55-5-55-5-|-0--0-00-0-00-0-|-5--5-55-5-55-5-|
Eb2--2-22-2-22-2-|-5--5-55-5-55-5-|-1--1-11-1-11-1-|-5--5-55-5-55-5-|
Bb3--3-33-3-33-3-|-5--5-55-5-55-5-|-2--2-22-2-22-2-|-7--7-77-7-77-7-| X2
F-3--3-33-3-33-3-|-3--3-33-3-33-3-|-2--2-22-2-22-2-|-7--7-77-7-77-7-|
C-1--1-11-1-11-1-|----------------|-0--0-00-0-00-0-|-5--5-55-5-55-5-|

(Palm muted)
c-1--1-11-1-11-1-|-3--3-33-3-33-3-|-0--0-00-0-00-0-|-5--5-55-5-55-5-|
G-1--1-22-2-22-2-|-5--5-55-5-55-5-|-0--0-00-0-00-0-|-5--5-55-5-55-5-|
Eb2--2-22-2-22-2-|-5--5-55-5-55-5-|-1--1-11-1-11-1-|-5--5-55-5-55-5-|
Bb3--3-33-3-33-3-|-5--5-55-5-55-5-|-2--2-22-2-22-2-|-7--7-77-7-77-7-| X2
F-3--3-33-3-33-3-|-3--3-33-3-33-3-|-2--2-22-2-22-2-|-7--7-77-7-77-7-|
C-1--1-11-1-11-1-|----------------|-0--0-00-0-00-0-|-5--5-55-5-55-5-|

ella, ella, ey, ey, ey, under my umbrella, ella, ella, ey, ey, ey, under my 
ella, ey, ey ey
under my umbrella, ella, ella, ey, ey, ey,ey, ey-ey...

Bridge:

c-5-5-55-55-5-55-|-5-5-55-5-55-55-|-3-3-33-3-33-33-|-3-3-33-3-33-33-|
G-6-6-66-66-6-66-|-5-5-55-5-55-55-|-5-5-55-5-55-55-|-3-3-33-3-33-33-|
Eb7-7-77-77-7-77-|-5-5-55-5-55-55-|-5-5-55-5-55-55-|-4-4-44-4-44-44-|
Bb7-7-77-77-7-77-|-7-7-77-7-77-77-|-5-5-55-5-55-55-|-5-5-55-5-55-55-|
F-5-5-55-55-5-55-|-7-7-77-7-77-77-|-3-3-33-3-33-33-|-5-5-55-5-55-55-|
C----------------|-5-5-55-5-55-55-|----------------|-3-3-33-3-33-33-|

c-5-5-55-55-5-55-|-5-5-55-5-55-55-|-0-0-00-0-00-00-|-0-0-00-0-00-00-|
G-6-6-66-66-6-66-|-5-5-55-5-55-55-|-0-0-00-0-00-00-|-0-0-00-0-00-00-|
Eb7-7-77-77-7-77-|-5-5-55-5-55-55-|-1-1-11-1-11-11-|-1-1-11-1-11-11-|
Bb7-7-77-77-7-77-|-7-7-77-7-77-77-|-2-2-22-2-22-22-|-2-2-22-2-22-22-|
F-5-5-55-55-5-55-|-7-7-77-7-77-77-|-2-2-22-2-22-22-|-2-2-22-2-22-22-|
C----------------|-5-5-55-5-55-55-|-0-0-00-0-00-00-|-0-0-00-0-00-00-|

You can run into my arms, it's okay don't be alarmed, come into me, there's no distance 
between our love,
gonna let the rain fall, i'll be all you need and more...ohhh,

Because!

When the sun shines we'll shine together, I told you I'd be here forever,
said I'd always be your friend, took an oath gonna stick it out to the end, now that it's
rainin' more than ever, know that we'll still have each other, you can stand under my umbrella
you can stand under my umbrella,

c-1--1-11-1-11-1-|-3--3-33-3-33-3-|-0--0-00-0-00-0-|-5--5-55-5-55-5-|
G-1--1-22-2-22-2-|-5--5-55-5-55-5-|-0--0-00-0-00-0-|-5--5-55-5-55-5-|
Eb2--2-22-2-22-2-|-5--5-55-5-55-5-|-1--1-11-1-11-1-|-5--5-55-5-55-5-|
Bb3--3-33-3-33-3-|-5--5-55-5-55-5-|-2--2-22-2-22-2-|-7--7-77-7-77-7-| X2
F-3--3-33-3-33-3-|-3--3-33-3-33-3-|-2--2-22-2-22-2-|-7--7-77-7-77-7-|
C-1--1-11-1-11-1-|----------------|-0--0-00-0-00-0-|-5--5-55-5-55-5-|

(Palm muted)
c-1--1-11-1-11-1-|-3--3-33-3-33-3-|-0--0-00-0-00-0-|-5--5-55-5-55-5-|
G-1--1-22-2-22-2-|-5--5-55-5-55-5-|-0--0-00-0-00-0-|-5--5-55-5-55-5-|
Eb2--2-22-2-22-2-|-5--5-55-5-55-5-|-1--1-11-1-11-1-|-5--5-55-5-55-5-|
Bb3--3-33-3-33-3-|-5--5-55-5-55-5-|-2--2-22-2-22-2-|-7--7-77-7-77-7-| X2
F-3--3-33-3-33-3-|-3--3-33-3-33-3-|-2--2-22-2-22-2-|-7--7-77-7-77-7-|
C-1--1-11-1-11-1-|----------------|-0--0-00-0-00-0-|-5--5-55-5-55-5-|

ella, ella, ey, ey, ey, under my umbrella, ella, ella, ey, ey, ey, under my umbrella, 
ella, ey, ey, ey
under my umbrella, ella, ella, ey, ey, ey,ey, ey-ey...

c----------------|----------------|----------------|----------------|
G----------------|----------------|----------------|----------------|
Eb----2-------2--|-----9-------9--|-----1--------1-|-----5-------5--|
Bb---------------|----------------|----------------|----------------|
F---3---3----3--3|---10-10--10--10|---2--2-----2---|---7--7-----7-7-|
C-1------1-1-----|-8-----8-8------|-0------0-0-----|-5------5-5-----|
Tap to rate this tab
 
# A B C D E F G H I J K L M N O P Q R S T U V W X Y Z