Song name
# A B C D E F G H I J K L M N O P Q R S T U V W X Y Z

Plain White Ts - I Really Want You tab

Highlighted       Show chord diagrams
Artist:Plain White T's
Song:I Really Want You
Album:Big Bad World
Tuning:standard

I couldn't find a tab for this song so i decided to tab it myself.


Intro:
   
   G
E--3--|
B--3--|
G--4--|
D--5--|
A--5--|
E--3--|

Verse:

   G        Bm       Em     D
E--3---------2--------x-----2------------------------|
B--3---------3--------x-----3------------------------|
G--4---------4--------x-----2------------------------|
D--5---------4--------2-----x------------------------|
A--5---------2--------2-----x------------------------|
E--3---------x--------x-----x------------------------|

Chorus:

    G       Bm        Em        C
E---3--------2--------x---------x---------------------|
B---3--------3--------x---------1---------------------|
G---4--------4--------x---------0---------------------|
D---5--------4--------2---------2---------------------|
A---5--------2--------2---------3---------------------|
E---3--------x--------x---------x---------------------|


Bridge:

   G          Bm         Em          D
E--3-----------2----------x----------2----------------|
B--3-----------3----------x----------3----------------|
G--4-----------4----------x----------2----------------|
D--5-----------4----------2----------x----------------|
A--5-----------2----------2----------x----------------|
E--3-----------x----------x----------x----------------|


Lyrics:

Verse 1:
Can't believe the feeling that i felt when i saw you
If i was an artist on a paper i would draw you
Hang it on the wall with all th masterpieces 
Cause that's where you belong
Before long the people would be lined up down the streets to see you
People that will never get the chance to really meet you
They won't see in this gallery just how beautiful you are.

Chorus:
You know i want you, I really want you
You don't know how bad i want you, I really do

Verse 2:
Can't believe thee feeling that i felt when i met you
If i was the piolet of a jet then i would let you
Fly us all the way up far into the stars
Cause that's where you belong
Before long the people would be wondering why we've gone celestial
People would be wondering what makes you so special.
They won't see in this galaxy just how beautiful you are.

Chrous: 
You know i want you
I really want you
You don't know how bad i want you
I really do

Bridge:
And when i finally get you 
I'll probably want somebody else
Ain't that the way it goes.

Go back to chorus


Tap to rate this tab
 
# A B C D E F G H I J K L M N O P Q R S T U V W X Y Z