Song name
# A B C D E F G H I J K L M N O P Q R S T U V W X Y Z

Planet Shakers - This Love tab

Ok so the Rhythm part goes like this 

(play the first section twice during "it's time to get your praise on"
then play three times making a total of five times

e|-----|-----|-----|    |-------------------------|
B|-----|-----|-----|    |-------------------------|
G|-----|-----|-----| x3 |-------------------------| Back to chorus ONE 
D|-0---|-3---|-5---|    |-0-0-2-2-3-3-5-5-3-3-5-7-| Guitar with Vocals
A|-0-x8|-3-x4|-5-x4|    |-0-0-2-2-3-3-5-5-3-3-5-7-|
D|-0---|-3---|-5---|    |-0-0-2-2-3-3-5-5-3-3-5-7-|

The solo that the guitarist does is kind of hard to hear, 
so this is my version that sounds similar in the beginning 
and the last few notes are also similar. 
Try to get a lot of distortion but not to fuzzy with delay and no reverb.

It's played pretty fast, and the later half is even faster

e|------------------------------------------------------------------|
B|-----10-10-----10-1010--------------10-10-----10-12-12^-12-10-12^-|
G|-----10-10-----10-1010--------------10-10-----10-12-12^-12-10-12^-|
D|-12------12---12-------12--12-11-12-----12--12--------------------|
A|------------------------------------------------------------------|
D|------------------------------------------------------------------|

e|----------------------------------------------------------|
B|-10-10-----10-1010--------------10-10-----10-12-12^-12-10-|
G|-10-10-----10-1010--------------10-10-----10-12-12^-12-10-|
D|-----12---12-------12--12-11-12-----12--12----------------|
A|----------------------------------------------------------|
D|----------------------------------------------------------|

e|---------------------------------------------------------------10--x4-|
B|---------------------------------------------------------10-13-13^-x4-|
G|-12^-12h10--12^-12h10-10--12^-12h10--12^-12h10--10--10-12-------------|
D|---------12---------12------------12---------12-----------------------|
A|----------------------------------------------------------------------|
D|----------------------------------------------------------------------|

e|-13-13^-10--13-12h10--10-------------------------------------------------------|
B|----------13--------13----10h13h10--------------------------------10-13/15-15^-|
G|------------------------13--------13h12h10-12-10~-------------10-13------------|
D|------------------------------------------12-12--12h10-10-10-12----------------|
A|-----------------------------------------------------12------------------------|
D|-------------------------------------------------------------------------------|

The last note (G-15^) needs to be bent up 3 half steps to match the note F (G-18)

Tap to rate this tab
 
# A B C D E F G H I J K L M N O P Q R S T U V W X Y Z