Guitaretab - guitar tabs
Song name
# A B C D E F G H I J K L M N O P Q R S T U V W X Y Z

Planet Smashers - Unstoppable tab

Highlighted       Show chord diagrams
-------------------------------------------------------------------------------
                         Unstoppable - Planet Smashers
-------------------------------------------------------------------------------
Tabbed by: Andy Heidt
Email: andythecripple@hotmail.com

As always, play the chords where ya want em,
this is just where i play them

Tuning: standard
[ Tab from: http://www.guitaretab.com/p/planet-smashers/141490.html ]
Intro/Basic Verse Progression        
|-10------10------8-------10--10--|
|-10------12------8-------12--10--|
|-11------12------9-------12--11--|
|-12------12------10------12--12--|
|-12------10------10------10--12--|
|-10------10------8-------10--10--|
  D       G       C       G   D   |        
 
Prechorus (~That's right)		 
|-10------|  
|-12------|  
|-12------|  
|-12------|  
|-10------|  
|-10------|
  G     

Chorus
|-8-------10------10--------------|-8-------3-------5---------------|
|-8-------12------10--------------|-8-------3-------7---------------|
|-9-------12------11--------------|-9-------4-------7---------------|
|-10------12------12--------------|-10------5-------7---------------|
|-10------10------12--------------|-10------5-------5---------------|
|-8-------10------10--------------|-8-------3-------5---------------|
  C       G       D                 C       G       D
Related for Unstoppable tab