Song name
# A B C D E F G H I J K L M N O P Q R S T U V W X Y Z

Planetshakers - Praise You tab

Help us improve GuitareTab! Take a short survey!
SONG: Praise You
ARTIST: Planetshakers
TUNING: Standard

Note: This song was nowhere to be found on the internet, so I took the initiative 
to figure this thing out...

GUITAR I--------------------------------------------------------------------------------|

INTRO

e|--------------------------------------------------------------------|
B|--------------------------------------------------------------------|
G|-4-4-4-4-4-----------------------4-4-4-4-4--------------------------|
D|-4-4-4-4-4-2-2-2-6-6-6-6-6-2-2-2-4-4-4-4-4-2-2-2---6--6--6--4-4-6---|
A|-2-2-2-2-2-2-2-2-6-6-6-6-6-2-2-2-2-2-2-2-2-2-2-2---6--6--6--4-4-6---|
E|-----------0-0-0-4-4-4-4-4-0-0-0-----------0-0-0---4--4--4--0-2-4---|

e|--------------------------------------------------------------------|
B|--------------------------------------------------------------------|
G|-4-4-4-4-4-----------------------4-4-4-4-4--------------------------|
D|-4-4-4-4-4-2-2-2-6-6-6-6-6-2-2-2-4-4-4-4-4-2-2-2---6--6--6--4-4-6---|
A|-2-2-2-2-2-2-2-2-6-6-6-6-6-2-2-2-2-2-2-2-2-2-2-2---6--6--6--4-4-6---|
E|-----------0-0-0-4-4-4-4-4-0-0-0-----------0-0-0---4--4--4--0-2-4---|

VERSE

e|-------------------------------------------------------------------------|
B|-------------------------------------------------------------------------|
G|-------------------------------------------------------------------------|
D|-------------------------------------------------------------------------|
A|-----------------------------------------------------------------------4-|
E|-7-7-7-7-7-7-7-0--4-4-4-4-4-4-4-4-0--7-7-7-7-7-7-7-0--4-4-4-4-4-4-4-0--2-|
PM|-------------    ---------------    -------------    -------------|

PRE-CHORUS

e|---------------------------------------------------------------------|
B|---------------------------------------------------------------------|
G|---------------------------------------------------------------------|
D|---------------------------------------------------------------------|
A|-6-6-6-6-6-6-6-6-6-4-4-4-4-6-6-7-7-2-2-2-2-2-2-2-2-2-7-7-7-7-6-6-4-4-|
E|-4-4-4-4-4-4-4-4-4-4-4-4-4-4-4-4-4-0-0-0-0-0-0-0-0-0-0-0-0-0-0-0-0-0-|
PM|-------------------------------------------------------------------|

e|---------------------------------------------------------------------|
B|---------------------------------------------------------------------|
G|---------------------------------------------------------------------|
D|--------------------------------------------------------2--2--2--2---|
A|-6-6-6-6-6-6-6-6-6-4-4-4-4-6-6-7-7-2-2-2-2-2-2-2-2-2-2--2--2--2--2---|
E|-4-4-4-4-4-4-4-4-4-4-4-4-4-4-4-4-4-0-0-0-0-0-0-0-0-0-0--0--0--0--0---|
PM|-----------------------------------------------------|

CHORUS

e|--------------------------------------------------------------------|
B|--------------------------------------------------------------------|
G|-4-4-4-4-4-----------------------4-4-4-4-4--------------------------|
D|-4-4-4-4-4-2-2-2-6-6-6-6-6-2-2-2-4-4-4-4-4-2-2-2---6--6--6--4-4-4---|
A|-2-2-2-2-2-2-2-2-6-6-6-6-6-2-2-2-2-2-2-2-2-2-2-2---6--6--6--4-4-4---|
E|-----------0-0-0-4-4-4-4-4-0-0-0-----------0-0-0---4--4--4--0-2-0---|

e|--------------------------------------------------------------------|
B|--------------------------------------------------------------------|
G|-----------------4-4-4-4-4-------------------------9--8--6--4-/6----|
D|-6-6-6-6-6-2-2-2-4-4-4-4-4-4-4-4-2-2-2-2-2-2-2-2--------------------|
A|-6-6-6-6-6-2-2-2-2-2-2-2-2-4-4-4-2-2-2-2-2-2-2-2---7--6--4--2-/4----|
E|-4-4-4-4-4-0-0-0-----------2-2-2-0-0-0-0-0-0-0-0---0--0--0--0--0----|

POST-CHORUS

e|--------------------------------------------------------------------|
B|--------------------------------------------------------------------|
G|--------------------------------------------------------------------|
D|--------------------------------------------------------------------|
A|------------------------*---------------------------------*---------|
E|-7-7-7---0-0-0---4-4-4-4bQ-0-0-0---7-7-7---0-0-0---4-4-4-4bQ-0-0-0--|

* _bQ = quarter-step bend

VERSE

e|-------------------------------------------------------------------------|
B|-------------------------------------------------------------------------|
G|-------------------------------------------------------------------------|
D|-------------------------------------------------------------------------|
A|-----------------------------------------------------------------------4-|
E|-7-7-7-7-7-7-7-0--4-4-4-4-4-4-4-4-0--7-7-7-7-7-7-7-0--4-4-4-4-4-4-4-0--2-|
PM|-------------    ---------------    -------------    -------------|

PRE-CHORUS

e|---------------------------------------------------------------------|
B|---------------------------------------------------------------------|
G|---------------------------------------------------------------------|
D|---------------------------------------------------------------------|
A|-6-6-6-6-6-6-6-6-6-4-4-4-4-6-6-7-7-2-2-2-2-2-2-2-2-2-7-7-7-7-6-6-4-4-|
E|-4-4-4-4-4-4-4-4-4-4-4-4-4-4-4-4-4-0-0-0-0-0-0-0-0-0-0-0-0-0-0-0-0-0-|
PM|-------------------------------------------------------------------|

e|---------------------------------------------------------------------|
B|---------------------------------------------------------------------|
G|---------------------------------------------------------------------|
D|--------------------------------------------------------2--2--2--2---|
A|-6-6-6-6-6-6-6-6-6-4-4-4-4-6-6-7-7-2-2-2-2-2-2-2-2-2-2--2--2--2--2---|
E|-4-4-4-4-4-4-4-4-4-4-4-4-4-4-4-4-4-0-0-0-0-0-0-0-0-0-0--0--0--0--0---|
PM|-----------------------------------------------------|

CHORUS

e|--------------------------------------------------------------------|
B|--------------------------------------------------------------------|
G|-4-4-4-4-4-----------------------4-4-4-4-4--------------------------|
D|-4-4-4-4-4-2-2-2-6-6-6-6-6-2-2-2-4-4-4-4-4-2-2-2---6--6--6--4-4-4---|
A|-2-2-2-2-2-2-2-2-6-6-6-6-6-2-2-2-2-2-2-2-2-2-2-2---6--6--6--4-4-4---|
E|-----------0-0-0-4-4-4-4-4-0-0-0-----------0-0-0---4--4--4--0-2-0---|

e|--------------------------------------------------------------------|
B|--------------------------------------------------------------------|
G|-----------------4-4-4-4-4-------------------------9--8--6--4-/6----|
D|-6-6-6-6-6-2-2-2-4-4-4-4-4-4-4-4-2-2-2-2-2-2-2-2--------------------|
A|-6-6-6-6-6-2-2-2-2-2-2-2-2-4-4-4-2-2-2-2-2-2-2-2---7--6--4--2-/4----|
E|-4-4-4-4-4-0-0-0-----------2-2-2-0-0-0-0-0-0-0-0---0--0--0--0--0----|

BRIDGE

e|--------------------------------------------------------------------|
B|--------------------------------------------------------------------|
G|--4~-------------------------------4~-------------------------------|
D|--4~-------------------------------4~-------------------------------|
A|--2~-------------------------------2~-------------------------------|
E|--------------------------------------------------------------------|

e|--------------------------------------------------------------------|
B|--------------------------------------------------------------------|
G|--------------------------------------------------------------------|
D|--------------------------------------------------------------------|
A|-9-9-9-9-9-9-9-9-9-9-9-9-9-9-9-9-9-6-6-6-6-6-6-6-6-4-4-4-4-4-4-4-4--|
E|-7-7-7-7-7-7-7-7-7-6-6-6-6-6-6-6-6-4-4-4-4-4-4-4-4-2-2-2-2-2-2-2-2--|
PM|-----------------------------------------------------------------|


e|--------------------------------------------------------------------|
B|--------------------------------------------------------------------|
G|---------------------------------------------------6-6-6-6-6-6-6-6--|
D|-9-9-9-9-9-9-9-9-9-9-9-9-9-9-9-9-9-6-6-6-6-6-6-6-6------------------|
A|-7-7-7-7-7-7-7-7-7-6-6-6-6-6-6-6-6-4-4-4-4-4-4-4-4-4-4-4-4-4-4-4-4--|
E|--------------------------------------------------------------------|
PM--------------------------------------------------|

e|--------------------------------------------------------------------|
B|--------------------------------------------------------------------|
G|--------------------------------------------------------------------|
D|-6-6-6-6-6-6-6-6-6-8-8-8-8-8-8-8-8-9-9-9-9-9-9-9-9-2-2-2-2-2-2-2-2--|
A|-6-6-6-6-6-6-6-6-6-8-8-8-8-8-8-8-8-9-9-9-9-9-9-9-9-2-2-2-2-2-2-2-2--|
E|-4-4-4-4-4-4-4-4-4-6-6-6-6-6-6-6-6-7-7-7-7-7-7-7-7-0-0-0-0-0-0-0-0--|

e|--------------------------------------------------------------------|
B|--------------------------------------------------------------------|
G|-4-4-4-4-4-4-4-4-4-6-6-6-6-6-6-6-6-4-4-4-4-4-4-4-4-4-4-4-4-4-4-4-4--|
D|-4-4-4-4-4-4-4-4-4-6-6-6-6-6-6-6-6-4-4-4-4-4-4-4-4-4-4-4-4-4-4-4-4--|
A|-2-2-2-2-2-2-2-2-2-4-4-4-4-4-4-4-4-2-2-2-2-2-2-2-2-2-2-2-2-2-2-2-2--|
E|--------------------------------------------------------------------|

CHORUS

e|--------------------------------------------------------------------|
B|--------------------------------------------------------------------|
G|--------------------------------------------------------------------|
D|--------tacet--------------------------------------6--6--6--4-4-4---|
A|--------------------------------------2b3r2b3/-----6--6--6--4-4-4---|
E|---------------------------------------------------4--4--4--0-2-0---|

e|--------------------------------------------------------------------|
B|--------------------------------------------------------------------|
G|-----------------4-4-4-4-4-------------------------9--8--6--4-/6----|
D|-6-6-6-6-6-2-2-2-4-4-4-4-4-4-4-4-2-2-2-2-2-2-2-2--------------------|
A|-6-6-6-6-6-2-2-2-2-2-2-2-2-4-4-4-2-2-2-2-2-2-2-2---7--6--4--2-/4----|
E|-4-4-4-4-4-0-0-0-----------2-2-2-0-0-0-0-0-0-0-0---0--0--0--0--0----|

e|--------------------------------------------------------------------|
B|--------------------------------------------------------------------|
G|-4-4-4-4-4-----------------------4-4-4-4-4--------------------------|
D|-4-4-4-4-4-2-2-2-6-6-6-6-6-2-2-2-4-4-4-4-4-2-2-2---6--6--6--4-4-4---|
A|-2-2-2-2-2-2-2-2-6-6-6-6-6-2-2-2-2-2-2-2-2-2-2-2---6--6--6--4-4-4---|
E|-----------0-0-0-4-4-4-4-4-0-0-0-----------0-0-0---4--4--4--0-2-0---|

e|--------------------------------------------------------------------|
B|--------------------------------------------------------------------|
G|-----------------4-4-4-4-4-------------------------9--8--6--4-/6----|
D|-6-6-6-6-6-2-2-2-4-4-4-4-4-4-4-4-2-2-2-2-2-2-2-2--------------------|
A|-6-6-6-6-6-2-2-2-2-2-2-2-2-4-4-4-2-2-2-2-2-2-2-2---7--6--4--2-/4----|
E|-4-4-4-4-4-0-0-0-----------2-2-2-0-0-0-0-0-0-0-0---0--0--0--0--0----|

OUTRO

e|--------------------------------------------------------------------|
B|--------------------------------------------------------------------|
G|--------------------------------------------------------------------|
D|--------------------------------------------------------------------|
A|------------------------*---------------------------------*---------|
E|-7-7-7---0-0-0---4-4-4-4bQ-0-0-0---7-7-7---0-0-0---4-4-4-4bQ-0-0-0--|

* _bQ = quarter-step bend



GUITAR II-------------------------------------------------------------------------------|


INTRO

Synth transcribed for guitar w/wah
e|--------------------------------------------------------------------|
B|-5-5-5-5-5-0-0-0-2-2-2--2-0-2-4---5-5-5-5-5-0-0-0------5-4-2-0-2-0--|
G|--------------------------------------------------------------------|
D|--------------------------------------------------------------------|
A|--------------------------------------------------------------------|
E|--------------------------------------------------------------------|

e|--------------------------------------------------------------------|
B|-5-5-5-5-5-0-0-0-2-2-2--2-4-2-0---5-5-5-5-5-0-0-0------5-4-2-0-2-4--|
G|--------------------------------------------------------------------|
D|--------------------------------------------------------------------|
A|--------------------------------------------------------------------|
E|--------------------------------------------------------------------|

VERSE

e|--------------------------------------------------------------------|
B|-----------------------12----12----11-12----12----12----11-12-------|
G|--tacet-------------11----11----11-------11----11----11-------------|
D|--------------------------------------------------------------------|
A|--------------------------------------------------------------------|
E|--------------------------------------------------------------------|

PRE-CHORUS

e|-----14-----14-----12-11-------11-----14-----14-----12-11-----------|
B|--12-----12-----12-------12-14-----12-----12-----12-------12-14-----|
G|--------------------------------------------------------------------|
D|--------------------------------------------------------------------|
A|--------------------------------------------------------------------|
E|--------------------------------------------------------------------|

CHORUS

e|--------------------------------------------------------------------|
B|--------------------------------------------------------------------|
G|-4-4-4-4-4-----------------------4-4-4-4-4--------------------------|
D|-4-4-4-4-4-2-2-2-6-6-6-6-6-2-2-2-4-4-4-4-4-2-2-2---6--6--6--4-4-4---|
A|-2-2-2-2-2-2-2-2-6-6-6-6-6-2-2-2-2-2-2-2-2-2-2-2---6--6--6--4-4-4---|
E|-----------0-0-0-4-4-4-4-4-0-0-0-----------0-0-0---4--4--4--0-2-0---|

e|--------------------------------------------------------------------|
B|--------------------------------------------------------------------|
G|-----------------4-4-4-4-4-------------------------9--8--6--4-/6----|
D|-6-6-6-6-6-2-2-2-4-4-4-4-4-4-4-4-2-2-2-2-2-2-2-2--------------------|
A|-6-6-6-6-6-2-2-2-2-2-2-2-2-4-4-4-2-2-2-2-2-2-2-2---7--6--4--2-/4----|
E|-4-4-4-4-4-0-0-0-----------2-2-2-0-0-0-0-0-0-0-0---0--0--0--0--0----|

POST-CHORUS

e|--------------------------------------------------------------------|
B|--------------------------------------------------------------------|
G|--------------------------------------------------------------------|
D|--------------------------------------------------------------------|
A|------------------------*---------------------------------*---------|
E|-7-7-7---0-0-0---4-4-4-4bQ-0-0-0---7-7-7---0-0-0---4-4-4-4bQ-0-0-0--|
Wah|====------==--------====---------=====------==---------====-----|

* _bQ = quarter-step bend

VERSE

e|--------------------------------------------------------------------|
B|-----------------------12----12----11-12----12----12----11-12-------|
G|--tacet-------------11----11----11-------11----11----11-------------|
D|--------------------------------------------------------------------|
A|--------------------------------------------------------------------|
E|--------------------------------------------------------------------|

PRE-CHORUS

e|-----14-----14-----12-11-------11-----14-----14-----12-11-----------|
B|--12-----12-----12-------12-14-----12-----12-----12-------12-14-----|
G|--------------------------------------------------------------------|
D|--------------------------------------------------------------------|
A|--------------------------------------------------------------------|
E|--------------------------------------------------------------------|

CHORUS

e|--------------------------------------------------------------------|
B|--------------------------------------------------------------------|
G|-4-4-4-4-4-----------------------4-4-4-4-4--------------------------|
D|-4-4-4-4-4-2-2-2-6-6-6-6-6-2-2-2-4-4-4-4-4-2-2-2---6--6--6--4-4-4---|
A|-2-2-2-2-2-2-2-2-6-6-6-6-6-2-2-2-2-2-2-2-2-2-2-2---6--6--6--4-4-4---|
E|-----------0-0-0-4-4-4-4-4-0-0-0-----------0-0-0---4--4--4--0-2-0---|

e|--------------------------------------------------------------------|
B|--------------------------------------------------------------------|
G|-----------------4-4-4-4-4-------------------------9--8--6--4-/6----|
D|-6-6-6-6-6-2-2-2-4-4-4-4-4-4-4-4-2-2-2-2-2-2-2-2--------------------|
A|-6-6-6-6-6-2-2-2-2-2-2-2-2-4-4-4-2-2-2-2-2-2-2-2---7--6--4--2-/4----|
E|-4-4-4-4-4-0-0-0-----------2-2-2-0-0-0-0-0-0-0-0---0--0--0--0--0----|

e|--------------------------------------------------------------------|
B|-----12----12----11-12----12----12----11-12----0---5--4--2--0--2----|
G|--11----11----11-------11----11----11-------------------------------|
D|--------------------------------------------------------------------|
A|------------------------x2------------------------------------------|
E|--------------------------------------------------------------------|

e|--------------------------------------------------------------------|
B|-----12----12----11-12----12----12----11-12-------------------------|
G|--11----11----11-------11----11----11------------9--8--6--4-/6------|
D|--------------------------------------------------------------------|
A|------------------------x2-----------------------7--6--4--2-/4------|
E|--------------------------------------------------------------------|

BRIDGE

Piano transcribed for guitar w/delay
e|-----14--12--11-----11------14--12--11-----11-----------------------|
B|-12--------------14-----12--------------14--------------------------|
G|--------------------------------------------------------------------|
D|--------------------------------------------------------------------|
A|--------------------------------------------------------------------|
E|--------------------------------------------------------------------|

Gtr 2 w/delay

e|-------------------------------------------------------------------------------|
B|----11----11h12---------11----11h12---------11----11h12---------11----11h12----|
G|-11----11-------11---11----11-------11---11----11-------11---11----11-------11-|
D|-------------------------------------------------------------------------------|
A|-------------------------------------------------------------------------------|
E|-------------------------------------------------------------------------------|
PM|---------        ------------        ------------         -----------        -|

CHORUS

e|--------------------------------------------------------------------|
B|-----12----12----11-12----12----12----11-12----0---5--4--2--0--2----|
G|--11----11----11-------11----11----11-------------------------------|
D|--------------------------------------------------------------------|
A|------------------------x2------------------------------------------|
E|--------------------------------------------------------------------|

e|--------------------------------------------------------------------|
B|-----12----12----11-12----12----12----11-12-------------------------|
G|--11----11----11-------11----11----11------------9--8--6--4-/6------|
D|--------------------------------------------------------------------|
A|------------------------x2-----------------------7--6--4--2-/4------|
E|--------------------------------------------------------------------|

OUTRO

e|--------------------------------------------------------------------|
B|--------------------------------------------------------------------|
G|--------------------------------------------------------------------|
D|--------------------------------------------------------------------|
A|------------------------*---------------------------------*---------|
E|-7-7-7---0-0-0---4-4-4-4bQ-0-0-0---7-7-7---0-0-0---4-4-4-4bQ-0-0-0--|
Wah|====------==--------====---------=====------==---------====-----|

* _bQ = quarter-step bend

Fin.

Please rate and comment.
Related for Praise You tab