Song name
# A B C D E F G H I J K L M N O P Q R S T U V W X Y Z

Plastiscines - Barcelona tab

-------------------------------------------------------------------------------
			     BARCELONA - Plastiscines
-------------------------------------------------------------------------------
Tabbed by:
Email:

Tuning: Standard (EADGBE)

I hate having to decipher the way people have put in rhythm so I haven't put it in, 
have to figure it out yourself.

The chorus chord sequence is: F Dm C Am

e|-------------------------------------------------------------------------|
B|-------------------------------------------------------------------------|
G|-------------------------------------------------------------------------|
D|-------------------------------------------------------------------------|
A|-----3-5-3-----3-5-3-----3-5-3-5/7-7-5---------3-5-3-----3-5-3-----3-5-3-|
E|-5-5-------5-5-------5-5---------------7-5-5-5-------5-5-------5-5-------|

e|--------------------------------------------------------------------------|
B|--------------------------------------------------------------------------|
G|--------------------------------------------------------------------------|
D|--------------------------------------------------------------------------|
A|-5/7-7-5------------------------------------------------------------------|
E|---------7-5--------------------------------------------------------------|

e|--------------------------------------------------------------------------|
B|--------------------------------------------------------------------------|
G|--------------------------------------------------------------------------|
D|-7-7-7-10-10-10-10-7-7-7-10-10-10-10--------------------------------------|
A|-7-7-7-10-10-10-10-7-7-7-10-10-10-10--------------------------------------|
E|-5-5-5-8--8--8--8--5-5-5-8--8--8--8---------------------------------------|

e|-------------------------------------------------------------------------|
B|-------------------------------------------------------------------------|
G|-------------------------------------------------------------------------|
D|-------------------------------------------------------------------------|
A|-----3-5-3-----3-5-3-----3-5-3-5/7-7-5---------3-5-3-----3-5-3-----3-5-3-|
E|-5-5-------5-5-------5-5---------------7-5-5-5-------5-5-------5-5-------|

e|--------------------------------------------------------------------------|
B|--------------------------------------------------------------------------|
G|--------------------------------------------------------------------------|
D|--------------------------------------------------------------------------|
A|-5/7-7-5------------------------------------------------------------------|
E|---------7-5--------------------------------------------------------------|

e|--------------------------------------------------------------------------|
B|--------------------------------------------------------------------------|
G|--------------------------------------------------------------------------|
D|-7-7-7-10-10-10-10--------------------------------------------------------|
A|-7-7-7-10-10-10-10--------------------------------------------------------|
E|-5-5-5-8--8--8--8---------------------------------------------------------|

I'm a bit iffy about the Dm in this section but it sounds right to me.

e|-8--8--8--8--10-10-10-10-10-8--8--8--8--5-5-5-5-5-8--8--8--8--10-10-10-10-|
B|-10-10-10-10-10-10-10-10-10-8--8--8--8--5-5-5-5-5-10-10-10-10-10-10-10-10-|
G|-10-10-10-10-10-10-10-10-10-9--9--9--9--5-5-5-5-5-10-10-10-10-10-10-10-10-|
D|-10-10-10-10-12-12-12-12-12-10-10-10-10-7-7-7-7-7-10-10-10-10-12-12-12-12-|
A|-8--8--8--8--12-12-12-12-12-10-10-10-10-7-7-7-7-7-8--8--8--8--12-12-12-12-|
E|-------------10-10-10-10-10-8--8--8--8--5-5-5-5-5-------------10-10-10-10-|

e|-10-8--8--8--8--5-5-5-5-5-------------------------------------------------|
B|-10-8--8--8--8--5-5-5-5-5-------------------------------------------------|
G|-10-9--9--9--9--5-5-5-5-5-------------------------------------------------|
D|-12-10-10-10-10-7-7-7-7-7-------------------------------------------------|
A|-12-10-10-10-10-7-7-7-7-7-------------------------------------------------|
E|-10-8--8--8--8--5-5-5-5-5-------------------------------------------------|

e|--------------------------------------------------------------------------|
B|--------------------------------------------------------------------------|
G|--------------------------------------------------------------------------|
D|-7-7-10-12-10-7-7-10-12-10-7-7-10-12-10-7-7-10-12-14----------------------|
A|-7-7-10-12-10-7-7-10-12-10-7-7-10-12-10-7-7-10-12-14----------------------|
E|-5-5-8--10-8--5-5-8--10-8--5-5-8--10-8--5-5-8--10-12----------------------|

e|-------------------------------------------------------------------------|
B|-------------------------------------------------------------------------|
G|-------------------------------------------------------------------------|
D|-------------------------------------------------------------------------|
A|-----3-5-3-----3-5-3-----3-5-3-5/7-7-5---------3-5-3-----3-5-3-----3-5-3-|
E|-5-5-------5-5-------5-5---------------7-5-5-5-------5-5-------5-5-------|

e|--------------------------------------------------------------------------|
B|--------------------------------------------------------------------------|
G|--------------------------------------------------------------------------|
D|--------------------------------------------------------------------------|
A|-5/7-7-5------------------------------------------------------------------|
E|---------7-5--------------------------------------------------------------|

e|--------------------------------------------------------------------------|
B|--------------------------------------------------------------------------|
G|--------------------------------------------------------------------------|
D|-7-7-7-10-10-10-10--------------------------------------------------------|
A|-7-7-7-10-10-10-10--------------------------------------------------------|
E|-5-5-5-8--8--8--8---------------------------------------------------------|

I'm still a bit iffy about the Dm in this section but it sounds right to me.

e|-8--8--8--8--10-10-10-10-10-8--8--8--8--5-5-5-5-5-8--8--8--8--10-10-10-10-|
B|-10-10-10-10-10-10-10-10-10-8--8--8--8--5-5-5-5-5-10-10-10-10-10-10-10-10-|
G|-10-10-10-10-10-10-10-10-10-9--9--9--9--5-5-5-5-5-10-10-10-10-10-10-10-10-|
D|-10-10-10-10-12-12-12-12-12-10-10-10-10-7-7-7-7-7-10-10-10-10-12-12-12-12-|
A|-8--8--8--8--12-12-12-12-12-10-10-10-10-7-7-7-7-7-8--8--8--8--12-12-12-12-|
E|-------------10-10-10-10-10-8--8--8--8--5-5-5-5-5-------------10-10-10-10-|

e|-10-8--8--8--8--5-5-5-5-5-8--8--8--8--10-10-10-10-10-8--8--8--8--5-5-5-5-5|
B|-10-8--8--8--8--5-5-5-5-5-10-10-10-10-10-10-10-10-10-8--8--8--8--5-5-5-5-5|
G|-10-9--9--9--9--5-5-5-5-5-10-10-10-10-10-10-10-10-10-9--9--9--9--5-5-5-5-5|
D|-12-10-10-10-10-7-7-7-7-7-10-10-10-10-12-12-12-12-12-10-10-10-10-7-7-7-7-7|
A|-12-10-10-10-10-7-7-7-7-7-8--8--8--8--12-12-12-12-12-10-10-10-10-7-7-7-7-7|
E|-10-8--8--8--8--5-5-5-5-5-------------10-10-10-10-10-8--8--8--8--5-5-5-5-5|

e|-8--8--8--8--10-10-10-10-10-8--8--8--8--5-5-5-5-5-------------------------|
B|-10-10-10-10-10-10-10-10-10-8--8--8--8--5-5-5-5-5-------------------------|
G|-10-10-10-10-10-10-10-10-10-9--9--9--9--5-5-5-5-5-------------------------|
D|-10-10-10-10-12-12-12-12-12-10-10-10-10-7-7-7-7-7-------------------------|
A|-8--8--8--8--12-12-12-12-12-10-10-10-10-7-7-7-7-7-------------------------|
E|-------------10-10-10-10-10-8--8--8--8--5-5-5-5-5-------------------------|

Due to the length of this section I've kept the tab quite vague. Basically, hit the A a 
then play some deadened strings.

e|---------x-x-x-x----------------------------------------------------------|
B|---------x-x-x-x----------------------------------------------------------|
G|---------x-x-x-x----------------------------------------------------------|
D|--------------------------------------------------------------------------|
A|--------------------------------------------------------------------------|
E|-7-7-7-7------------------------------------------------------------------|

Not 100% sure about this section but its basically right.

e|--------------------------------------------------------------------------|
B|--------------------------------------------------------------------------|
G|--------------------------------------------------------------------------|
D|-3-3-3-3-3-3-3-3-3-3-5-2-2-2-3-2-0-2-3-5-3-3-3-3-3-3-3-3-3-3-3-5-2-2-2-3-2|
A|--------------------------------------------------------------------------|
E|--------------------------------------------------------------------------|

e|--------------------------------------------------------------------------|
B|--------------------------------------------------------------------------|
G|--------------------------------------------------------------------------|
D|-0-2-3-5-3----------------------------------------------------------------|
A|--------------------------------------------------------------------------|
E|--------------------------------------------------------------------------|

e|-8--8--8--8--10-10-10-10-10-8--8--8--8--5-5-5-5-5-8--8--8--8--10-10-10-10-|
B|-10-10-10-10-10-10-10-10-10-8--8--8--8--5-5-5-5-5-10-10-10-10-10-10-10-10-|
G|-10-10-10-10-10-10-10-10-10-9--9--9--9--5-5-5-5-5-10-10-10-10-10-10-10-10-|
D|-10-10-10-10-12-12-12-12-12-10-10-10-10-7-7-7-7-7-10-10-10-10-12-12-12-12-|
A|-8--8--8--8--12-12-12-12-12-10-10-10-10-7-7-7-7-7-8--8--8--8--12-12-12-12-|
E|-------------10-10-10-10-10-8--8--8--8--5-5-5-5-5-------------10-10-10-10-|

e|-10-8--8--8--8--5-5-5-5-5-8--8--8--8--10-10-10-10-10-8--8--8--8--5-5-5-5-5|
B|-10-8--8--8--8--5-5-5-5-5-10-10-10-10-10-10-10-10-10-8--8--8--8--5-5-5-5-5|
G|-10-9--9--9--9--5-5-5-5-5-10-10-10-10-10-10-10-10-10-9--9--9--9--5-5-5-5-5|
D|-12-10-10-10-10-7-7-7-7-7-10-10-10-10-12-12-12-12-12-10-10-10-10-7-7-7-7-7|
A|-12-10-10-10-10-7-7-7-7-7-8--8--8--8--12-12-12-12-12-10-10-10-10-7-7-7-7-7|
E|-10-8--8--8--8--5-5-5-5-5-------------10-10-10-10-10-8--8--8--8--5-5-5-5-5|

e|-8--8--8--8--10-10-10-10-10-8--8--8--8--5-5-5-5-5-------------------------------|
B|-10-10-10-10-10-10-10-10-10-8--8--8--8--5-5-5-5-5-------------------------------|
G|-10-10-10-10-10-10-10-10-10-9--9--9--9--5-5-5-5-5-------------------------------|
D|-10-10-10-10-12-12-12-12-12-10-10-10-10-7-7-7-7-7-------------------------------|
A|-8--8--8--8--12-12-12-12-12-10-10-10-10-7-7-7-7-7-------------------------------|
E|-------------10-10-10-10-10-8--8--8--8--5-5-5-5-5--Repeat to finish-------------|


| /  slide up
| \  slide down
| h  hammer-on
| p  pull-off
| ~  vibrato
| +  harmonic
| x  Mute note
===============================================================================
Tap to rate this tab
 
# A B C D E F G H I J K L M N O P Q R S T U V W X Y Z