Song name
# A B C D E F G H I J K L M N O P Q R S T U V W X Y Z

Plus 44 - Baby Come On Acoustic tab

Intro:

  F   C   D Bb  F   C    D Bb  F  Bb
e 5-1-3---5-1---5-1-3----5-1---5-1-3--|
B -----3--------------3-------------3-|
G-------------3--------------3--------|
D-------------------------------------|
A-------------------------------------|
E-------------------------------------|

Verse:

e------------------------------------------------------|
B -----------------------------------------------------|
G ----2----2----2----2----2----------------------------|
D 3-3--3-3--3-3--3-3--3-3--3-----3----3----3----3---3--|
A ---------------------------1-1--1-1--1-1--1-1--1-1-1-| (Repeat)
E -----------------------------------------------------|

On "Remember, remember":

e ---------------------------------|
B ---------------------------------|
G -------------------------------2-| (back to verse)
D ----5----5--5----3----3--3-3-3---|
A 3-3--3-3--3--1-1--1-1--1---------|
E ---------------------------------|

Chorus Chords:
C                Bb        D                Bb
Quit crying your eyes out, quit crying your eyes out, and baby come on
C                        Bb
Isn't there something familiar about me?
D                    Bb
The past is only the future with the lights on
C                Bb (stay on Bb)
Quit crying your eyes out baby

e----------------------------|
B ---------------------------|
G ----2----2----2----2----2--|
D 3-3--3-3--3-3--3-3--3-3--3-| (Back to verse)
A ---------------------------|
E ---------------------------|

Bridge Chords:

F  C  D
F  C  D Eb
F  C  D
F  C  D

Chorus 2x, end on F
Tap to rate this tab
# A B C D E F G H I J K L M N O P Q R S T U V W X Y Z