Song name
# A B C D E F G H I J K L M N O P Q R S T U V W X Y Z

Plus 44 - When Your Heart Stops Beating tab

WHEN YOUR HEART STOPS BEATING
As recorded by (+44)
(From the 2006 Album WHEN YOUR HEART STOPS BEATING)


A5
5 7 7 x x x C5
x 3 5 5 x x G5
3 5 5 x x x F5
1 3 3 x x x 
E5
0 2 2 x x x A5(type 2)
x 0 2 2 x x 



   Intro
    Q=158
    A5
   4/4
    Gtr I
    E  E E E  E E E E    E  E E E  E E E E
    |  | | |  | | | |    |  | | |  | | | |
    /  / / /  / / / /    /  / / /  / / / /

    Gtr II
    Q.     Q.     Q     +Q.     Q.     Q
||---------5----------|--------------------|
||o---------------5---|-(5)------------5---|
||--------------------|--------------------|
||--------------------|---------7----------|
||o-------------------|--------------------|
||--------------------|--------------------|
|
|   Gtr III
|   W                    W
||--------------------|--------------------|
||o-------------------|--------------------|
||--------------------|--------------------|
||--------------------|--------------------|
||o-------------------|--------------------|
||--------------------|--------------------|


  C5                   G5
   E  E E E  E E E E    E  E E E   E  E  E  E
   |  | | |  | | | |    |  | | |   |  |  |  |
   /  / / /  / / / /    /  / / /   /  /  /  /

  +Q.     Q.     Q     +Q.     Q.        Q
|--------------------|---------3--------------|
|-(5)------------5---|-(5)--------------------|
|---------5----------|------------------------|
|--------------------|-------------------5----|
|--------------------|------------------------|
|--------------------|------------------------|
|
|  H.            E E    E  E E E  +E  E +Q
|------------------7-|--7--7-7-8--(8)-7-(7)---|
|------------------8-|--8--8-8-8--(8)-8-(8)---|
|--------------------|------------------------|
|--------------------|------------------------|
|--------------------|------------------------|
|--------------------|------------------------|


  A5
   E  E E E  E E E E    E  E E E  E E E E
   |  | | |  | | | |    |  | | |  | | | |
   /  / / /  / / / /    /  / / /  / / / /

  +Q.     Q.     Q     +Q.     Q.     Q
|---------5----------|--------------------|
|----------------5---|-(5)------------5---|
|--------------------|--------------------|
|-(5)----------------|---------7----------|
|--------------------|--------------------|
|--------------------|--------------------|
|
|  W                    W
|--------------------|--------------------|
|--------------------|--------------------|
|--------------------|--------------------|
|--------------------|--------------------|
|--------------------|--------------------|
|--------------------|--------------------|


  C5                   G5
   E  E E E  E E E E    E  E E  E   E  E  E  E
   |  | | |  | | | |    |  | |  |   |  |  |  |
   /  / / /  / / / /    /  / /  /   /  /  /  /

  +Q.     Q.     Q     +Q.      Q.        Q
|--------------------|---------12---------------||
|-(5)------------5---|-(5)---------------13----o||
|---------5----------|--------------------------||
|--------------------|--------------------------||
|--------------------|-------------------------o||
|--------------------|--------------------------||
|
|  H.            E E    E  E E  E  +E  E +Q
|------------------7-|--7--7-7--8--(8)-7-(7)----||
|------------------8-|--8--8-8--8--(8)-8-(8)---o||
|--------------------|--------------------------||
|--------------------|--------------------------||
|--------------------|-------------------------o||
|--------------------|--------------------------||


   Verse
    A5
      E  E E E E E E E     E  E E E E E E E
      |  | | | | | | |     |  | | | | | | |
      /  / / / / / / /     /  / / / / / / /

    Gtr II
      >
     +W                   +W
||---------------------|--------------------|
||o-(13)---------------|-(13)---------------|
||---------------------|--------------------|
||---------------------|--------------------|
||o--------------------|--------------------|
||---------------------|--------------------|
|
|   Gtr III
|     E  E E E E E E E     E  E E E E E E E
||---------------------|--------------------|
||o--------------------|--------------------|
||---------------------|--------------------|
||----7--7-7---7-7-7-7-|---7--7-7---7-7-7-7-|
||o---7--7-7---7-7-7-7-|---7--7-7---7-7-7-7-|
||----5--5-5---5-5-5-5-|---5--5-5---5-5-5-5-|


  C5                         G5
    E   E  E E  E  E  E  E     E    E   E   E   E   E   E   E
    |   |  | |  |  |  |  |     |    |   |   |   |   |   |   |
    /   /  / /  /  /  /  /     /    /   /   /   /   /   /   /

   +W                         +W                                 4x
|--------------------------|-------------------------------------||
|-(13)---------------------|-(13)-------------------------------o||
|--------------------------|-------------------------------------||
|--------------------------|-------------------------------------||
|--------------------------|------------------------------------o||
|--------------------------|-------------------------------------||
|
|   E   E  E E  E  E  E  E     E    E   E   E   E   E   E   E    4x
|--------------------------|-------------------------------------||
|--------------------------|------------------------------------o||
|--------------------------|------<12>----<12>----<12>----<12>---||
|--10--10-10---10-10-10-10-|--12-------12------12------12--------||
|--10--10-10---10-10-10-10-|--10-------10------10------10-------o||
|---8---8--8----8--8--8--8-|-------------------------------------||


   Chorus
    $
    F5                 C5
    Gtr I
    E  E E E E E E E    E  E E E E E E E
||-------------------|-------------------|
||o------------------|-------------------|
||-------------------|--5--5-5-5-5-5-5-5-|
||--3--3-3-3-3-3-3-3-|--5--5-5-5-5-5-5-5-|
||o-3--3-3-3-3-3-3-3-|--3--3-3-3-3-3-3-3-|
||--1--1-1-1-1-1-1-1-|-------------------|
|
|   Gtr II
|   Q.     E Q   Q     +Q.     E Q   Q
||-------------------|-------------------|
||o--------5-5-------|-------------------|
||---------------5---|-(5)-----7-7---5---|
||-------------------|-------------------|
||o------------------|-------------------|
||-------------------|-------------------|


  E5                  A5
   E  E E E E E E E    E  E E E E E E E
|-------------------|---------------------||
|-------------------|--------------------o||
|-------------------|---------------------||
|--2--2-2-2-2-2-2-2-|--7--7-7-7-7-7-7-7---||
|--2--2-2-2-2-2-2-2-|--7--7-7-7-7-7-7-7--o||
|--0--0-0-0-0-0-0-0-|--5--5-5-5-5-5-5-5---||
|
| +Q.     E Q   Q     +Q.     E Q   Q
|-------------------|---------------------||
|---------5-5-------|--------------------o||
|-(5)-----------5---|-(5)-----7-7---5-----||
|-------------------|---------------------||
|-------------------|--------------------o||
|-------------------|---------------------||


 Post Chorus
  F5                   C5
  Gtr I
  E  E E E E  E  E E    E  E E  E  E   E  E E
  |  | | | |  |  | |    |  | |  |  |   |  | |
  /  / / / /  /  / /    /  / /  /  /   /  / /

  Gtr II
  Q.     E Q     Q     +Q.      E  Q      Q
|--------------------|------------------------|
|--------5-5---------|------------------------|
|----------------5---|-(5)------7--7------5---|
|--------------------|------------------------|
|--------------------|------------------------|
|--------------------|------------------------|
|
| Gtr III
| Q.     E E +E  Q     +Q.      E  E  +E  Q
|--------------------|------------------------|
|--------8-8-(8)-----|------------------------|
|----------------9---|-(9)-----10-10-(10)-9---|
|--------------------|------------------------|
|--------------------|------------------------|
|--------------------|------------------------|


  E5                    A5
   E  E E E E  E  E E    E  E E  E  E   E  E E
   |  | | | |  |  | |    |  | |  |  |   |  | |
   /  / / / /  /  / /    /  / /  /  /   /  / /

  +Q.     E Q     Q     +Q.      E  Q      Q
|---------------------|------------------------|
|---------5-5---------|------------------------|
|-(5)-------------5---|-(5)------7--7------5---|
|---------------------|------------------------|
|---------------------|------------------------|
|---------------------|------------------------|
|
| +Q.     E E +E  Q     +Q.      E  E  +E  Q
|---------------------|------------------------|
|---------8-8-(8)-----|------------------------|
|-(9)-------------9---|-(9)-----10-10-(10)-9---|
|---------------------|------------------------|
|---------------------|------------------------|
|---------------------|------------------------|


  F5                    C5
   E  E E E E  E  E E    E  E E  E  E   E  E E
   |  | | | |  |  | |    |  | |  |  |   |  | |
   /  / / / /  /  / /    /  / /  /  /   /  / /

  +Q.     E Q     Q     +Q.      E  Q      Q
|---------------------|------------------------|
|---------5-5---------|------------------------|
|-(5)-------------5---|-(5)------7--7------5---|
|---------------------|------------------------|
|---------------------|------------------------|
|---------------------|------------------------|
|
| +Q.     E E +E  Q     +Q.      E  E  +E  Q
|---------------------|------------------------|
|---------8-8-(8)-----|------------------------|
|-(9)-------------9---|-(9)-----10-10-(10)-9---|
|---------------------|------------------------|
|---------------------|------------------------|
|---------------------|------------------------|


             To Coda
  E5
   E  E E E E  E  E E    E  E E E E E E E
   |  | | | |  |  | |    |  | | | | | | |
   /  / / / /  /  / /    /  / / / / / / /

  +Q.     E Q     Q     +W
|---------------------|-------------------|
|---------5-5---------|-------------------|
|-(5)-------------5---|-(5)---------------|
|---------------------|-------------------|
|---------------------|-------------------|
|---------------------|-------------------|
|
| +Q.     E E +E  Q      Q    Q   Q   Q
|---------------------|-------------------|
|---------8-8-(8)-----|--6----5---6---5---|
|-(9)-------------9---|-------------------|
|---------------------|-------------------|
|---------------------|-------------------|
|---------------------|-------------------|


 Pre-Verse
  A5
  Gtr I
  E  E E E  E E E E    E  E E E  E E E E
  |  | | |  | | | |    |  | | |  | | | |
  /  / / /  / / / /    /  / / /  / / / /

  Gtr II
  Q.     Q.     Q     +Q.     Q.     Q
|--------5----------|--------------------|
|---------------5---|-(5)------------5---|
|-------------------|--------------------|
|-------------------|---------7----------|
|-------------------|--------------------|
|-------------------|--------------------|
|
| Gtr III
| W                    W
|-------------------|--------------------|
|-------------------|--------------------|
|-------------------|--------------------|
|-------------------|--------------------|
|-------------------|--------------------|
|-------------------|--------------------|


  C5                   G5
   E  E E E  E E E E    E  E E E   E  E  E  E
   |  | | |  | | | |    |  | | |   |  |  |  |
   /  / / /  / / / /    /  / / /   /  /  /  /

  +Q.     Q.     Q     +Q.     Q.        Q
|--------------------|---------3--------------|
|-(5)------------5---|-(5)--------------------|
|---------5----------|------------------------|
|--------------------|-------------------5----|
|--------------------|------------------------|
|--------------------|------------------------|
|
|  H.            E E    E  E E E  +E  E +Q
|------------------7-|--7--7-7-8--(8)-7-(7)---|
|------------------8-|--8--8-8-8--(8)-8-(8)---|
|--------------------|------------------------|
|--------------------|------------------------|
|--------------------|------------------------|
|--------------------|------------------------|


  A5
   E  E E E  E E E E    E  E E E  E E E E
   |  | | |  | | | |    |  | | |  | | | |
   /  / / /  / / / /    /  / / /  / / / /

  +Q.     Q.     Q     +Q.     Q.     Q
|---------5----------|--------------------|
|----------------5---|-(5)------------5---|
|--------------------|--------------------|
|-(5)----------------|---------7----------|
|--------------------|--------------------|
|--------------------|--------------------|
|
|  W                    W
|--------------------|--------------------|
|--------------------|--------------------|
|--------------------|--------------------|
|--------------------|--------------------|
|--------------------|--------------------|
|--------------------|--------------------|


  C5                   G5
   E  E E E  E E E E    E  E E  E   E  E  E  E
   |  | | |  | | | |    |  | |  |   |  |  |  |
   /  / / /  / / / /    /  / /  /   /  /  /  /

  +Q.     Q.     Q     +Q.      Q.        Q
|--------------------|---------12--------------|
|-(5)------------5---|-(5)---------------13----|
|---------5----------|-------------------------|
|--------------------|-------------------------|
|--------------------|-------------------------|
|--------------------|-------------------------|
|
|  H.            E E    E  E E  E  +E  E +Q
|------------------7-|--7--7-7--8--(8)-7-(7)---|
|------------------8-|--8--8-8--8--(8)-8-(8)---|
|--------------------|-------------------------|
|--------------------|-------------------------|
|--------------------|-------------------------|
|--------------------|-------------------------|


 Verse
  N.C.
  Gtr I
    E  E Q  E E E E     E  E Q  E E E E
|-------------------|-------------------|
|-------------------|-------------------|
|-------------------|-------------------|
|---7--7-7--7-7-7-7-|---7--7-7--7-7-7-7-|
|-------------------|-------------------|
|---5--5-5--5-5-5-5-|---5--5-5--5-5-5-5-|
|
| Gtr II
|  +W                  +W
|-------------------|-------------------|
|-(13)--------------|-(13)--------------|
|-------------------|-------------------|
|-------------------|-------------------|
|-------------------|-------------------|
|-------------------|-------------------|


    E  E E E E E E E    E  E  E  E  E  E  E  E
|--------------------|-------------------------|
|--------------------|-------------------------|
|---5--5-5-5-5-5-5-5-|----12----12----12----12-|
|--------------------|-------------------------|
|---3--3-3-3-3-3-3-3-|-10----10----10----10----|
|--------------------|-------------------------|
|
|  +W                   W
|--------------------|-------------------------|
|-(13)---------------|-------------------------|
|--------------------|-------------------------|
|--------------------|-------------------------|
|--------------------|-------------------------|
|--------------------|-------------------------|


                                                               D.S. al Coda
  E E Q  E E E E   E E Q  E E E E   E E E E E E E E    E  E  E  E  E  E  E  E
|----------------|----------------|-----------------|-------------------------|
|----------------|----------------|-----------------|-------------------------|
|----------------|----------------|-5-5-5-5-5-5-5-5-|-12-12-12-12-12-12-12-12-|
|-7-7-7--7-7-7-7-|-7-7-7--7-7-7-7-|-----------------|-------------------------|
|----------------|----------------|-3-3-3-3-3-3-3-3-|-10-10-10-10-10-10-10-10-|
|-5-5-5--5-5-5-5-|-5-5-5--5-5-5-5-|-----------------|-------------------------|


 Bridge
  &
  E5               A5
  Gtr I
                   >
  E E Q  H         W                    +W
|----------------|--------------------|---------------------|
|----------------|--------------------|---------------------|
|----------------|-2------------------|-(2)-----------------|
|-2--------------|-2------------------|-(2)-----------------|
|-2--------------|-0------------------|-(0)-----------------|
|-0--------------|--------------------|---------------------|
|
| Gtr II           Gtr IV
| E E Q  E E E E   Q.     E +Q    Q     +Q.     E +Q    Q
|----------------|--------------------|---------------------|
|----------------|--------1-(1)-------|---------1-(1)-------|
|-5-5-5--5-5-5-5-|--------------------|---------------------|
|----------------|----------------2---|-(2)-------------2---|
|----------------|--------------------|---------------------|
|----------------|--------------------|---------------------|
|
| Gtr III          Gtr V
|                  PM----------------------------------------
| Q   Q  Q   Q     E  E E E  E  E E E    E  E E E  E  E E E
|----------------|--------------------|---------------------|
|-6---5--6---5---|--------------------|---------------------|
|----------------|--------------------|---------------------|
|----------------|--------------------|---------------------|
|----------------|-7--7-7-7--7--7-7-7-|--7--7-7-7--7--7-7-7-|
|----------------|-5--5-5-5--5--5-5-5-|--5--5-5-5--5--5-5-5-|


                        G5
  +W                    +W
|---------------------|-------------------|
|---------------------|-------------------|
|-(2)-----------------|-(2)---------------|
|-(2)-----------------|-(2)---------------|
|-(0)-----------------|-(0)---------------|
|---------------------|-------------------|
|
| +Q.     E +Q    Q      W
|---------------------|-------------------|
|---------1-(1)-------|--0----------------|
|---------------------|-------------------|
|-(2)-------------2---|-------------------|
|---------------------|-------------------|
|---------------------|-------------------|
|
|---------------------------------------|
|  E  E E E  E  E E E    E  E E E E E E E
|---------------------|-------------------|
|---------------------|-------------------|
|---------------------|-------------------|
|---------------------|-------------------|
|--7--7-7-7--7--7-7-0-|--5--5-5-5-5-5-5-5-|
|--5--5-5-5--5--5-5-0-|--3--3-3-3-3-3-3-3-|


  F5
   W                     W
|---------------------|---------------------|
|---------------------|---------------------|
|---------------------|---------------------|
|---------------------|---------------------|
|---------------------|---------------------|
|---------------------|---------------------|
|
| +Q.     E +Q    Q     +Q.     E +Q    Q
|---------------------|---------------------|
|-(0)-----1-(1)-------|---------1-(1)-------|
|---------------------|---------------------|
|-----------------2---|-(2)-------------2---|
|---------------------|---------------------|
|---------------------|---------------------|
|
|  PM----------------------------------------
|  E  E E E  E  E E E    E  E E E  E  E E E
|---------------------|---------------------|
|---------------------|---------------------|
|---------------------|---------------------|
|---------------------|---------------------|
|--3--3-3-3--3--3-3-3-|--3--3-3-3--3--3-3-3-|
|--1--1-1-1--1--1-1-1-|--1--1-1-1--1--1-1-1-|


  E5                    G5              Am
   W                    H..             E
|---------------------|-------------------|
|---------------------|-------------------|
|---------------------|-----------------5-|
|---------------------|-----------------7-|
|---------------------|-----------------7-|
|---------------------|-----------------5-|
|
| +Q.     E +Q    Q     W
|---------------------|-------------------|
|---------1-(1)-------|-0-----------------|
|---------------------|-------------------|
|-(2)-------------2---|-------------------|
|---------------------|-------------------|
|---------------------|-------------------|
|
|-------------------------------------|
|  E  E E E  E  E E E   E   E E E E E E E
|---------------------|-------------------|
|---------------------|-------------------|
|---------------------|-------------------|
|---------------------|-------------------|
|--2--2-2-2--2--2-2-2-|-5---5-5-5-5-5-5---|
|--0--0-0-0--0--0-0-0-|-3---3-3-3-3-3-3---|


  Am                            C5               G5
  E E E E Q.   E   E E E E Q.   E   E E E E Q.   E   E E E E E E E E
|----------------|----------------|----------------|-----------------|
|----------------|----------------|----------------|-----------------|
|-5-5-5--------5-|-5-5-5--------5-|-5-5-5----------|-----------------|
|-7-7-7--------7-|-7-7-7--------5-|-5-5-5--------5-|-5-5-5-5-5-5-5-7-|
|-7-7-7--------7-|-7-7-7--------3-|-3-3-3--------5-|-5-5-5-5-5-5-5-7-|
|-5-5-5--------5-|-5-5-5----------|--------------3-|-3-3-3-3-3-3-3-5-|


  A5
  Gtr I
  E E E E Q   E E    E  E     E E E E E E
  | | |   |   | |    |  |     | | | | | |
  / / /   /   / /    /  /     / / / / / /

  Gtr II
  H       E E Q     +E.    S  E E H
|-----------------|---------------0-------|
|---------1-0-1---|-(1)-------1-3---------|
|-----------------|-----------------------|
|-----------------|-------(2)-------------|
|-----------------|-----------------------|
|-----------------|-----------------------|


  C5                   G5
   E  E E E  E E E E   E E E E E E E E
   |  | | |  | | | |   | | | | | | | |
   /  / / /  / / / /   / / / / / / / /

  +Q    E Q.     Q     W
|-(0)---0-0----------|------------------|
|----------------1---|-0----------------|
|--------------------|------------------|
|--------------------|------------------|
|--------------------|------------------|
|--------------------|------------------|


  A5
   E  E E E E E E E    E  E E E E E E E
   |  | | | | | | |    |  | | | | | | |
   /  / / / / / / /    /  / / / / / / /

  +Q.     E E E Q     +H        E E Q
|-------------------|---------------0---|
|-(0)-----1-1p0-1---|-(1)-------0-1-----|
|-------------------|-------------------|
|-------------------|-------------------|
|-------------------|-------------------|
|-------------------|-------------------|


  C5                   G5
   E  E E E  E E E E   E  E E E  E E E E
   |  | | |  | | | |   |  | | |  | | | |
   /  / / /  / / / /   /  / / /  / / / /

  +Q    E Q.     Q     Q.     Q.     Q
|-(0)---0-0----------|-------------------|
|----------------1---|-0-----------------|
|--------------------|--------2------0---|
|--------------------|-------------------|
|--------------------|-------------------|
|--------------------|-------------------|


  A5
  E  E E E E E E E    E  E E E E E E E
  |  | | | | | | |    |  | | | | | | |
  /  / / / / / / /    /  / / / / / / /

  Q.     E E E Q     +H        E E Q
|------------------|---------------0---|
|--------1-1p0-1---|-(1)-------0-1-----|
|------------------|-------------------|
|-2----------------|-------------------|
|------------------|-------------------|
|------------------|-------------------|


  C5                   G5
   E  E E E  E E E E   E  E E E  E E E E
   |  | | |  | | | |   |  | | |  | | | |
   /  / / /  / / / /   /  / / /  / / / /

  +Q    E Q.     Q     Q.     Q.     Q
|-(0)---0-0----------|-------------------|
|----------------1---|-0-----------------|
|--------------------|--------2------4---|
|--------------------|-------------------|
|--------------------|-------------------|
|--------------------|-------------------|


 Out-Chorus
  F5                 C5                  E5                  A5
  Gtr I
  E  E E E E E E E    E  E E E E E E E    E  E E E E E E E    E  E E E E E E E
  |  | | | | | | |    |  | | | | | | |    |  | | | | | | |    |  | | | | | | |
  /  / / / / / / /    /  / / / / / / /    /  / / / / / / /    /  / / / / / / /

  Gtr II
  >
  W                  +W                  +W                  +W
|------------------|-------------------|-------------------|-------------------|
|------------------|-------------------|-------------------|-------------------|
|-2----------------|-(2)---------------|-(2)---------------|-(2)---------------|
|------------------|-------------------|-------------------|-------------------|
|------------------|-------------------|-------------------|-------------------|
|------------------|-------------------|-------------------|-------------------|
|
| Gtr III
| Q.     E Q   Q     +Q.     E Q   Q     +Q.     E Q   Q     +Q.     E Q   Q
|------------------|-------------------|-------------------|-------------------|
|--------5-5-------|-------------------|---------5-5-------|-------------------|
|--------------5---|-(5)-----7-7---5---|-(5)-----------5---|-(5)-----7-7---5---|
|------------------|-------------------|-------------------|-------------------|
|------------------|-------------------|-------------------|-------------------|
|------------------|-------------------|-------------------|-------------------|


  F5                  C5
  Gtr I
   E  E E E E E E E    E  E E E E E E E
   |  | | | | | | |    |  | | | | | | |
   /  / / / / / / /    /  / / / / / / /

  Gtr II
  +Q.     E Q   Q     +Q.     E Q   Q
|-------------------|-------------------|
|---------5-5-------|-------------------|
|-(5)-----------5---|-(5)-----7-7---5---|
|-------------------|-------------------|
|-------------------|-------------------|
|-------------------|-------------------|


  E5                  A5
   E  E E E E E E E    E  E E E E E E E
   |  | | | | | | |    |  | | | | | | |
   /  / / / / / / /    /  / / / / / / /

  +Q.     E Q   Q     +Q.     E Q   Q
|-------------------|-------------------|
|---------5-5-------|-------------------|
|-(5)-----------5---|-(5)-----7-7---5---|
|-------------------|-------------------|
|-------------------|-------------------|
|-------------------|-------------------|


    F5                    C5
    Gtr I
     E  E E E E  E  E E    E  E E  E  E   E  E E
     |  | | | |  |  | |    |  | |  |  |   |  | |
     /  / / / /  /  / /    /  / /  /  /   /  / /

    Gtr II
    +Q.     E Q     Q     +Q.      E  Q      Q
||----------------------|------------------------|
||o---------5-5---------|------------------------|
||--(5)-------------5---|-(5)------7--7------5---|
||----------------------|------------------------|
||o---------------------|------------------------|
||----------------------|------------------------|
|
|   Gtr III
|    Q.     E E +E  Q     +Q.      E  E  +E  Q
||----------------------|------------------------|
||o---------8-8-(8)-----|------------------------|
||--(9)-------------9---|-(9)-----10-10-(10)-9---|
||----------------------|------------------------|
||o---------------------|------------------------|
||----------------------|------------------------|


                        1.,2.,3.
  E5                    A5
   E  E E E E  E  E E    E  E E  E  E   E  E E
   |  | | | |  |  | |    |  | |  |  |   |  | |
   /  / / / /  /  / /    /  / /  /  /   /  / /

  +Q.     E Q     Q     +Q.      E  Q      Q     4x
|---------------------|--------------------------||
|---------5-5---------|-------------------------o||
|-(5)-------------5---|-(5)------7--7------5-----||
|---------------------|--------------------------||
|---------------------|-------------------------o||
|---------------------|--------------------------||
|
| +Q.     E E +E  Q     +Q.      E  E  +E  Q     4x
|---------------------|--------------------------||
|---------8-8-(8)-----|-------------------------o||
|-(9)-------------9---|-(9)-----10-10-(10)-9-----||
|---------------------|--------------------------||
|---------------------|-------------------------o||
|---------------------|--------------------------||


  4.
  E5                A5(type 2)
  E E E E E E E E   W          +W           +W
  | | | | | | | |   |           |            |
  / / / / / / / /   /           /            /

                    >
  E E Q   E E E E   W          +W           +W
|-----------------|----------|------------|--------*|
|-----------------|----------|------------|--------*|
|-5-5-5---5-5-5-5-|-5--------|-(5)--------|-(5)----*|
|-----------------|----------|------------|--------*|
|-----------------|----------|------------|--------*|
|-----------------|----------|------------|--------*|
|
|                   >
| Q   Q   Q   Q     W          +W           +W
|-----------------|-5--------|-(5)--------|-(5)----*|
|-6---5---6---5---|----------|------------|--------*|
|-----------------|----------|------------|--------*|
|-----------------|----------|------------|--------*|
|-----------------|----------|------------|--------*|
|-----------------|----------|------------|--------*|
Tap to rate this tab
# A B C D E F G H I J K L M N O P Q R S T U V W X Y Z