Song name
# A B C D E F G H I J K L M N O P Q R S T U V W X Y Z

Plus One - Last Flight Out tab

Help us improve GuitareTab! Take a short survey!
i just thought I'd try my best so if its not accurate
i just wanted to give it a shot since i don't see this version anywhere else on internet 
o well.
listen to the song for timing.

symbols:
/=slide up
\=slide down
()= ghost note or play silently

chords
          E A D G B E
A         0 0 2 2 2 0
B         x 2 4 4 4 2
Bsus      x 2 4 4 x 0
C#m       x 4 6 6 5 4
E         0 2 2 1 0 0
G#m       4 6 6 4 4 4

intro
e|---------------------------------------------------------------------|
b|---------------------------------------------------------------------|
g|------9--8---------------------------------9--8---------------9------|
d|------------9---(7--9--7--9)----7--9---------------9----7--9------9--|
a|--------------------------------------7------------------------------|
e|---------------------------------------------------------------------|


verse
e|-----------------------------------------------------|
b|-----------------------------------------------------|
g|--9--8--------------------9--8---------------9-------|
d|--------9-----7--9---------------9----7--9------9----|x2
a|--------------------7--------------------------------|
e|-----------------------------------------------------|


pre chorus
e|--------------------------------------------------|
b|--------------------------------------------------|
g|--9--8----------------------6---------6--8--9-----|
d|--------9---7------7---9-----------9--------------|
a|--------------------------------------------------|
e|--------------------------------------------------|

Chorus:

   G#m          C#m       G#m        C#m
I want you to know you belong in my life.

   B        E      Bsus B       A
I love the hope I see   in your eyes.

     G#m          C#m    G#m            C#m
For you I would fly, at least I would try.

     B        E        Bsus  B    A
For you I'll take the last flight out.

{or if u don't get the chords u can play this instead}

E-----------------------------------------|
B-----------------------------------------|
G---9--8---6-----6---9-9--8--6-----6------|
D-------------9-----------------9---------|
A-----------------------------------------|
E-----------------------------------------|

E-----------------------------------------|
B----------------7/9---7------------------|
G---9----8----------------9--8-------6----|
D-----------9--------------------9--------|
A-----------------------------------------|
E-----------------------------------------|

E-----------------------------------------|
B-----------------------------------------|
G---9--8---6-----6---9-9--8--6-----6------|
D-------------9-----------------9---------|
A-----------------------------------------|
E-----------------------------------------|

E-------------------------------------|
B----------------7/9---7--------------|
G---9----8----------------9--8---9----|
D-----------9-------------------------|
A-------------------------------------|
E-------------------------------------|


verse 2

pre chorus

chorus

bridge

 E        G#m      A
I cannot hold back the truth no more,

                E         G#m         A
I let you wait too long (wait too long).

                 C#m             B      A
Although it's hard, and it scares me so,

             Bsus        B        E   A
A life without    you scares me more.


solo   {you can slide or hammer on/pull off at the 10/12\10}

e|----------------------------------------------------------|
b|---------------------9--10-10--10/12\10\9-----------------|
g|--9--8------------9------------------------9/11-----------|
d|--------9----------------------------------------7--9-----|
a|-------------------------------------------------------7--|
e|----------------------------------------------------------|

                       E      B/D#              A
(Scares me more, scares me more, scares me more...)

e|-------------------------------|
b|-------------------------------|
g|-----9--8--------------9-------|
d|-----------9----7--9------9----|
a|-------------------------------|
e|-------------------------------|

chorus

end

         Bsus  B    A   E
... the last flight out.


i know there's a second guitar or somethin as a backup sound i don't know the band that well.
 but i couldn't figure out some of the other parts of the bridge sorry.
Related for Last Flight Out tab