Guitaretab - guitar tabs
Song name
# A B C D E F G H I J K L M N O P Q R S T U V W X Y Z

Pocket Full Of Rocks - Let It Rain tab

Highlighted       Show chord diagrams
This is my first tab, anI donít know the names of the chords in the verse so I called 
C_, but here is how I play it. If you know please email me (james2010@nefcom.net) and 
me.

Verse-
      (C1)   (C2)    (C3)      (C4)

E ------3-------3-------3-------2h3p2--|
B ------3-------3-------3-------3------|
G ------2-------0-------0-------2------|
D ------2-------2-------0-------0------|
A ------2-------3-------2-------x------|
E ------x-------0-------3-------x------|
[ Tab from: http://www.guitaretab.com/p/pocket-full-of-rocks/179956.html ]
Chorus-(Before each chord I play the two notes I put below just for kicks I guess, those 
optional though)
    (Em)      (C)  (G)     (D)
E-3-2-0---3-2-0-----3-2-0-0-3-|
B-----0-------1-----0-------2-|
G-----0-------0-----0-------3-|
D-----2-------2-----0-------0-|
A-----2-------3-----2-------x-|
E-----0-------0-----3-------x-|

Here are the lyrics:
(C1)
We feel the rains of your love,
(C2)
We feel the winds of your spirit,
(C3)
But now the heartbeat of heaven,
(C4)
Let us hear.
(repeat that x4)

Chorus:
(Em)
Let it rain,
(C)
Let it rain,
(G)                                    (D)
Open the floodgates of heaven.
(Em)
Let it rain,
(C)
Let it rain,
(G)                                   (D)
Open the floodgates of heaven.
(Back to verse x1 then chorus x1)
Related for Let It Rain tab