Guitaretab - guitar tabs
Song name
# A B C D E F G H I J K L M N O P Q R S T U V W X Y Z
Home / P / Pod / Hollywood tab

Pod - Hollywood tab

Band- Pod
Song- Hollywood

Tuning: Drop D (D A D G B E)

Intro:
-----
-----
-----
0-0-0
0-0-0
0-0-0
Verse:
--------------------------|
--------------------------|
-------7------------7h8-5-|
---0------7-----0---------|
---0------------0---------|
---0------------0---------|

Chorus:
----------------|
----------------|
--7-7-7/8-8---5-|
0-x-x-x-x-x-0---|
0-5-5-5/6-6-0-3-|
0-----------0---|
[ Tab from: http://www.guitaretab.com/p/pod/134701.html ]
Bridge:
-------------------|----------------|
-------------------|----------------|
------------------7|------5-4-2-4-2-|
0-0-0-3-2-0-1-0-0-7|0-0-------------|
0-0-0-3-2-0-1-0-0-5|0-0---3-2-0-2-0-|
0-0-0-3-2-0-1-0-0--|0-0-------------|

Verse (variation):
---------------------------|
---------------------------|
-----------7---------------|
---0-------------0---------|
---0---5h6-------0---5h6-3-|
---0-------------0---------|

End:
----------------|
------7-8-7-----|
--7-8-------8-7-|
0---------------|
0---------------|
0---------------|
Related for Hollywood tab