Song name
# A B C D E F G H I J K L M N O P Q R S T U V W X Y Z

Pod - Lie Down tab

P.O.D. Lie Down tabbed by Vincent508

Tuning: Drop D

E
B
G
D
A
D


Intro riff 1, clean guitar

The timing is tricky, but just practice it a few times and you should get it.

             5                 5                  6
      |-------------|   |-------------|   |--------------|
|------------------------------------------------------------3--3--3-----------1--1--1--1--1--1--1|
|---5--3--3--3--3--3--6--3--3--3--3--3--6--3--3--3--3--3--3-----------1--1--1---------------------|
|-------------------------------------------------------------------------------------------------|
|-------------------------------------------------------------------------------------------------|
|-------------------------------------------------------------------------------------------------|
|-------------------------------------------------------------------------------------------------|

Intro riff 2, distorted guitar


|-----------------------------------------------|
|-----------------------------------------------|
|-----------------------------------------------|  x2
|---1--0-------0-------0--3--0-------0-------0--|
|---1--0-------0-------0--3--0-------0-------0--|
|---1--0-------0-------0--3--0-------0-------0--|

NOTE: "." means a full mute. Stop the note right after it's played.
|------------------------------------------------------|
|------------------------------------------------------|
|------------------------------------------------------|  x2
|------------------------------------------------------|
|---1--0.-------0.-------0--3--0.-------0.-------0-----|
|---1--0.-------0.-------0--3--0.-------0.-------0-----|
PM:|----|      |-|      |-------|      |-|      |------|

*PM = palm mute

Alternate between the strumming and palm muted riffs a few times(3 or 4 I think) 
before proceeding on.

--------------------------------------

Verse 1 riff 1, clean guitar

NOTE: "." means a full mute. Stop the note right after it's played.
|-----------------------------------------------------------|
|-----------------------------------------------------------|
|-----------------------------------------------------------|
|-----------------------------------------------------------|
|------4.-------4.-------------4.-------4.------------4s5---|
|---4--------------------0--4-------------------0--4--------|
PM:|----|      |-|      |-------|      |-|     |------------|

Verse 1 riff 2, ALMOST THE SAME as verse riff 1, except no palm muting and distorted guitar.

NOTE: "." = full mute, stop the note right after you pluck it.
|----------------------------------------------------------|
|----------------------------------------------------------|
|----------------------------------------------------------|
|----------------------------------------------------------|
|------4.-------4.-------------4.-------4.------------4s5--|
|---4--------------------0--4-------------------0--4-------|


--------------------------------------

Verse 2 riff 1, distorted guitar

|----------------------------------------------------------------|
|----------------------------------------------------------------|
|----------------------------------------------------------------| x4
|----------------------------------------------------------------|
|----------------------------------------------------------------|
|---1--0-------0-------0--3--0--------0--------0--1--0--------0--|


|--------------------------------------------------------------------|
|--------------------------------------------------------------------|
|--------------------------------------------------------------------| x4
|--------------------------------------------------------------------|
|---1--0.-------0.-------0--3--0.-------0.-------0--1--0.-------0.---|
|---1--0.-------0.-------0--3--0.-------0.-------0--1--0.-------0.---|
PM:|-----|     |-|      |-------|      |-|      |-------|      |-----|

PM:= Palm Mute

Verse 2 outro, distorted guitar


|-----------------------------------------------------------|
|-----------------------------------------------------------|
|-----------------------------------------------------------|
|---5--5-----5----------5--5s6-----6--------6--6--0------0--| x4
|---5--5-----5----------5--5s6-----6--------6--6--0------0--|
|---5--5-----5----------5--5s6-----6--------6--6--0------0--|


--------------------------------------

Outro riff 1, clean guitar

|---------------------------------------------------|
|---------------------------------------------------|
|---------------------------------------------------|
|---------------------------------------------------| x8
|------4-----3------------4-----3-------------4--3--|
|---4---------------0--4----------------0--4--------|


Outro riff 2, distorted guitar

|-----------------------------------------------------------|
|-----------------------------------------------------------|
|-----------------------------------------------------------|
|-----------------------------------------------------------| x8
|------4-----3------------4-----3----------1--1--------0----|
|---4---------------0--4----------------0--1--1--------0----|
PM:|-|             |----|              |-------|      |-----|
Tap to rate this tab
# A B C D E F G H I J K L M N O P Q R S T U V W X Y Z