Song name
# A B C D E F G H I J K L M N O P Q R S T U V W X Y Z

Pod - Boom tab

Intro
G|------------------|------------------|
D|------------------|------------------| x2
A|------------------|------------------|
D|-12\1-------------|-12\1-------------|


Verse
G|------------------|------------------|
D|------------------|------------------| x4
A|------------------|------------------|
D|-2222000022220000-|-5555555577777000-|

G|------------------|------------------|
D|------------------|------------------| x2
A|------------------|------------------|
D|-12\1-------------|-5555555577777000-|


Chorus
G|------------------|------------------|
D|-------0-------0--|------------------| x4
A|------------------|------------------|
D|-2-2-2---2-2-2----|-777770--777770---|
   T T T P T T T P

Verse
G|------------------|------------------|
D|------------------|------------------| x4
A|------------------|------------------|
D|-2222000022220000-|-5555555577777000-|

G|------------------|------------------|
D|------------------|------------------| x2
A|------------------|------------------|
D|-12\1-------------|-5555555577777000-|


Chorus
G|------------------|------------------|
D|-------0-------0--|------------------| x4
A|------------------|------------------|
D|-2-2-2---2-2-2----|-777770--777770---|
   T T T P T T T P

Bridge
G|------------------|------------------|       This may play through the 
D|------------------|------------------| x2    whole bridge/song, but I can't
A|------------------|--5-5-5-5-7-7-----|       tell and the other is easier 
D|-2222000022220000-|-5-5-5-5-7-7-7000-|   

G|------------------|------------------|
D|------------------|------------------| x3
A|------------------|------------------|
D|-2222000022220000-|-5555555577777000-|

G|------------------|------------------|
D|------------------|------------------| x1
A|------------------|------------------|
D|-2222000022220000-|-5--5--5----------|

G|------------------|------------------|
D|------------------|-0~---------------| x4
A|------------------|-5~---------------|
D|-2~---------------|-0~---------------|


Chorus
G|------------------|------------------|
D|------------------|------------------| x2
A|------------------|------------------|
D|-2-2-----2-2------|-777770--777770---|

G|------------------|------------------|
D|-------0-------0--|------------------| x2
A|------------------|------------------|
D|-2-2-2---2-2-2----|-777770--777770---|
   T T T P T T T P 


APSK
Tap to rate this tab
# A B C D E F G H I J K L M N O P Q R S T U V W X Y Z