Song name
# A B C D E F G H I J K L M N O P Q R S T U V W X Y Z

Poets Of The Fall - Passion Colors Everything tab

-----------------------------------------------------------------------
		PASSION COLORS EVERYTHING - Poets of the Fall
-----------------------------------------------------------------------
Tabbed by: LauriP
Email: vadelmap@gmail.com

Tuning: Normal(eadgbe)

Verse:
e|----0------0--------0--------0---0-----------------------------------|
B|---6-6----6-6------6-6------3---3------------------------------------|
G|--5---5--3---3----5---5----2---2-------------------------------------|
D|-0------0------0-----------------------------------------------------|
A|----------------3--------1-------------------------------------------|
E|---------------------------------------------------------------------|

Pre-chorus: (Chorus/Bridge is the same, but without the stopping)
e|---------------------------------------------------------------------|
B|---------------------------------------------------------------------|
G|---------------------------------------------------------------------|
D|-555--777--555--333--------------------------------------------------|
A|-555--555--333--333--------------------------------------------------|
E|-333--333--333--111--------------------------------------------------|

Enjoy.
Tap to rate this tab
 
# A B C D E F G H I J K L M N O P Q R S T U V W X Y Z