Song name
# A B C D E F G H I J K L M N O P Q R S T U V W X Y Z

Poets Of The Fall - Roses tab

-------------------------------------------------------------------------------
			   Roses - Poets of the Fall
-------------------------------------------------------------------------------

Tabbed by: djlj

Tuning: Standard tuning

I've had an issue with the tab already submitted for this song due to some major 
I've spent a while figuring out the real intro. Here's how the actual tab goes, and its pretty 
spot on:

Intro:

e|---0-------0-------3---2---0-----|
B|---0---3---3---3---3---3-----3---|
G|---0---0-------0-------2-------2-|
D|---------------------------------|  (repeat throughout the intro)
A|-------3-------------------------|
E|-0-------------3-------2---------|

This is the closest to how the intro is actually played that I could get.

Right before the chorus is a short down strummed bass note bridge that goes like this:

e|---------------------------------|
B|---------------------------------|
G|---------------------------------|
D|-2-2-2-2-2-2-2-2-0-0-0-0-0-0-0-0-|  (repeat x2)
A|-2-2-2-2-3-3-3-3-2-2-2-2-0-0-0-0-|
E|-0-0-0-0-0-0-0-0-3-3-3-3-2-2-2-2-|

Chorus: Em - C - G - D

Repeat all of the above for verse 2 and chorus 2 all the way to the end of the song. Enjoy!
Tap to rate this tab
# A B C D E F G H I J K L M N O P Q R S T U V W X Y Z