Song name
# A B C D E F G H I J K L M N O P Q R S T U V W X Y Z

Poets Of The Fall - The Beautiful Ones tab

Beautiful song...

~ let ring

Intro/Verse:

e|-----------------------------------------------------|
B|-------1-----1-----1-------------1-----1-----1-------|
G|---------2-----2-----2-------------2-----2-----2---2-|
D|---2-------2-----2-----------2-------2-----2-----2---|
A|-0---0-----------------0-2-3---3---------------------|
E|-----------------------------------------------------|
  Flies with a broken wing...

Bridge:

G G
And I am humbled...

Chorus:

e|---------------------------------------------------0~---|
B|-------1-------------3-------------3------------3~------|
G|-----2---2---2-----0---0---0---------0--------0---------|
D|---3-------3-----2-------2-------0-----0----2-----------|
A|-3-------------3---------------2---------3~-------------|
E|-----------------------------3--------------------------|
  Why do we sacrifice....

|---------------------------------------------0~-------|
|-------1-------------3-------------3-----3------3-----|
|-----2---2---2-----0---0---0---------0-----0------0---|
|---3-------3-----2-------2-------0-----0--------------|
|-3-------------3---------------2----------------------|
|-----------------------------3------------------------|

Part C:

C C G G   X 8
(humming)

Order:
Verse X 6
Bridge
Chorus X 2
Verse X 4
Bridge X 2
Chorus X 4
Part C
Chorus X 4
Tap to rate this tab
 
# A B C D E F G H I J K L M N O P Q R S T U V W X Y Z