Song name
# A B C D E F G H I J K L M N O P Q R S T U V W X Y Z

Poets Of The Fall - Lift tab

-------------------------------------------------------------------------------
			     Lift Solo - Poets of the Fall
-------------------------------------------------------------------------------
Tabbed by: Cereon
Email: paul_buzzz@hotmail.com

Tuning: standard (EADGBe)

e|--------------------------------------------------9p7----------------------|
B|----------------------------------------------7h9-----9p7------------------|
G|----------6p4-----------------6p4---------6h9-------------9p6--------------|
D|------4h6-----6p4---------4h6-----6p4--------------------------------------|
A|--4h7-------------7p4-4h7-------------7p4----------------------------------|
E|---------------------------------------------------------------------------|
    \\\\\\\\\ ///////// \\\\\\\\\ /////////  \\\\\\\\\ /////////

e|------------12p9-----------------------------------9+~---------------------|
B|-------9h12------12p9-------------------------9-12-------------------------|
G|--9h11----------------11p9--11~-----9-11-9-11------------------------------|
D|---------------------------------------------------------------------------|
A|---------------------------------------------------------------------------|
E|---------------------------------------------------------------------------|
    \\\\\\\\\\\\ ///////////

e|-------------12-------------------------14p12------------------------------|
B|-------12h14----14p12-------------12h14-------14p12------------------------|
G|-11h13----------------13p11-11h13-------------------13---------------------|
D|---------------------------------------------------------------------------|
A|---------------------------------------------------------------------------|
E|---------------------------------------------------------------------------|
    \\\\\\\\\\\\ //////////// \\\\\\\\\\\\\ ////////////

e|-------------12-------------------------14p12------------------------------|
B|-------12h14----14p12-------------12h14-------14p12------------------------|
G|-11h13----------------13p11-11h13-------------------13---------------------|
D|---------------------------------------------------------------------------|
A|---------------------------------------------------------------------------|
E|---------------------------------------------------------------------------|
    \\\\\\\\\\\\ //////////// \\\\\\\\\\\\\ ////////////

e|-------------12------------------------------------------------------------|
B|-------12h14----14p12------------------------------------------------------|
G|-11h13----------------13p11------------------------------------------------|
D|---------------------------------------------------------------------------|
A|---------------------------------------------------------------------------|
E|---------------------------------------------------------------------------|
    \\\\\\\\\\\\ //////////// 

e|--------------12h14p12-------14p12-------14p12-------14p12-------16~-------|
B|--------12h14----------14p12-------14p12-------14p12-------14p12-----------|
G|--11h13--------------------------------------------------------------------|
D|---------------------------------------------------------------------------|
A|---------------------------------------------------------------------------|
E|---------------------------------------------------------------------------|
     \\\\\\\\\\\\\

e|--16-16-19-19--14-14-16-16--12-12/14-14\9-9/12-12\7-7/9-9--9p7p6-7-6-------|
B|-----------------------------x--x--x--x-----x---x-x-x-x-x------------------|
G|-----------------------------9--9/11-11\6-6/9---9\4-4/6-6------------------|
D|---------------------------------------------------------------------------|
A|---------------------------------------------------------------------------|
E|---------------------------------------------------------------------------|

e|--9-11-12-9-11-12-9-11-12-9-11-12-9-11-12----------------------------------|
B|---------------------------------------------------------------------------|
G|---------------------------------------------------------------------------|
D|---------------------------------------------------------------------------|
A|---------------------------------------------------------------------------|
E|---------------------------------------------------------------------------|
    t.......................................................................

In some live performances Olli can also been seen doing something more along
these lines:

e|--9-11-12-9-11-12-9-11-14-9-11-12-9-11-14----------------------------------|
B|---------------------------------------------------------------------------|
G|---------------------------------------------------------------------------|
D|---------------------------------------------------------------------------|
A|---------------------------------------------------------------------------|
E|---------------------------------------------------------------------------|
    t.......................................................................

| /// sweep stroke up
| \\\ sweep stroke down
| /   slide up
| \   slide down
| h   hammer-on
| p   pull-off
| ~   vibrato
| +   harmonic
| x   Mute note
| t.. two-handed tapping
===============================================================================
Tap to rate this tab
# A B C D E F G H I J K L M N O P Q R S T U V W X Y Z