Song name
# A B C D E F G H I J K L M N O P Q R S T U V W X Y Z

Poisonblack - Rush tab

Help us improve GuitareTab! Take a short survey!
Song: Rush
Artist: Poisonblack
Album: Luststaind Despair

Tuning-  Down 1 whole step and drop D  So it is drop C


Main Riff:
-----------------------------------------------------------------------|
-----------------------------------------------------------------------|
-----------------------------------------------------------------------|
-0-x-x-x------------------------0--------------------------------------|
-0-x-x-x---------5-----7-5------0--------------------------------------|
-0-x-x-x---5-7-8---8-7-----<3>~-0--------------------------------------|

-------------------------------|
-------------------------------|
-------------------------------|
-x-x-x---------------------0-0-|
-x-x-x--------5-----7-<5>~-0-0-|
-x-x-x--5-7-8---8-7--------0-0-|


--------------------------------------------------------------|
--------------------------------------------------------------|
--------------------------------------------------------------|
-x-x-x------------------5-5-x-x-x-5----5---8-8-8-3-3-3-2-2-0--|
-x-x-x--------5-----7-5-5-5-x-x-x-5----5---8-8-8-3-3-3-2-2-0--|
-x-x-x--5-7-8---8-7-----5-5-x-x-x-5----5---8-8-8-3-3-3-2-2-0--|


____________________________________________________________________

Verse Riff:

------------------------------------------------------------------------|
------------------------------------------------------------------------|
------------------------------------------------------------------------|
-x-x-x--x-x---0--x-x---1p0-0-0-0-0-0-0-0--------1h3-8-8-8-3-3-3-2-2-0---|
-x-x-x--x-x---0--x-x---1p0-0-0-0-0-0-0-0--<3>~--1h3-8-8-8-3-3-3-2-2-0---|
-x-x-x--x-x---0--x-x---1p0-0-0-0-0-0-0-0--------1h3-8-8-8-3-3-3-2-2-0---|


_____________________________________________________________________

from the verse riff just go straight to the main riff again..
_______________
Key:

<3>- Pinch harmonic (squeely)
x-mute on the neck not palm mute
~-vibrato
________________

This is another un-tabbed sweet song, and i seen it on the net that people couldnt find 
so i tabbed it.  the verse riff isnt exact timing but the parts are 100% correct just 
them for the song.   again, poisonblack is sweet and there should be more tabs for them,

if you have questions send me a message on this site
Related for Rush tab