Song name
# A B C D E F G H I J K L M N O P Q R S T U V W X Y Z

Population 1 - Spaceman tab

It was hard to tab this song, but its the only one available, so try to make 
sense of it, and its my first    :D
any probs, email me   chris_sermeno_44@hotmail.com

Guitar 1
e|-------------------------------------------------------------------------|
B|-------------------------------------------------------------------------|
G|-------------------------4---4---4--6-6----------------------------------|
D|--7---7---7-7--7-7--7----------------------------------------------------|
A|-------------------------2---2---2--4-4----------------------------------|
E|--5---5---5-5--5-5--5----------------------------------------------------|

Guitar 2
e|-------------------------------------------------------------------------|
B|--0--------00--2-4-0-----------00-2-4-1h2h1h2h1--------------------------|
G|-------------------------------------------------------------------------|
D|-------------------------------------------------------------------------|
A|-------------------------------------------------------------------------|
E|-------------------------------------------------------------------------|

Guitar 1
e|-------------------------------------------------------------------------|
B|-------------------------------------------------------------------------|
G|-------------------------4---4---4---------------------------------------|
D|--7---7---7-7--7-7--7---------------4-4----------------------------------|
A|-------------------------2---2---2---------------------------------------|
E|--5---5---5-5--5-5--5---------------2-2----------------------------------|

Guitar 2
e|-------------------------------------------------------------------------|
B|---1------1-1---2-4\0----------0-0---------------------------------------|
G|-----------------------------------3-1---1h3-----------------------------|
D|---------------------------------------4---------------------------------|
A|-------------------------------------------------------------------------|
E|-------------------------------------------------------------------------|
Tap to rate this tab
# A B C D E F G H I J K L M N O P Q R S T U V W X Y Z