Song name
# A B C D E F G H I J K L M N O P Q R S T U V W X Y Z

Porcupine Tree - Time Flies tab

I tabbed this song watching a video of Steven Wilson on youtube so if some of this 
is wrong just let me know and I'll change it.

The mutes (x) are basically just to keep the rhythm going at a steady rate.

(Capo 5th. fret)

This the first shape:

e|-0-0-0-0-x-x-0-0-0-0-x-x-0-0-0-0-x-x-0-0-0-0-x-x-|
B|-3-3-3-3-x-x-3-3-3-3-x-x-3-3-3-3-x-x-3-3-3-3-x-x-|
G|-2-2-2-2-x-x-2-2-2-2-x-x-2-2-2-2-x-x-2-2-2-2-x-x-|
D|-2-2-2-2-x-x-2-2-2-2-x-x-2-2-2-2-x-x-2-2-2-2-x-x-|
A|-------------------------------------------------|
E|-------------------------------------------------|

e|-0-0-0-0-x-x-0-0-0-0-x-x-0-0-0-0-x-x-0-0-0-0-0-0-|
B|-0-0-0-0-x-x-0-0-0-0-x-x-3-3-3-3-x-x-0-0-0-0-0-0-|
G|-2-2-2-2-x-x-2-2-2-2-x-x-2-2-2-2-x-x-2-2-2-2-2-2-|
D|-2-2-2-2-x-x-2-2-2-2-x-x-2-2-2-2-x-x-2-2-2-2-2-2-|
A|-------------------------------------------------|
E|-------------------------------------------------|


This is the second shape:

e|-0-0-0-0-x-x-0-0-0-0-x-x-0-0-0-0-x-x-0-0-0-0-x-x-|
B|-5-5-5-5-x-x-5-5-5-5-x-x-5-5-5-5-x-x-5-5-5-5-x-x-|
G|-5-5-5-5-x-x-5-5-5-5-x-x-5-5-5-5-x-x-5-5-5-5-x-x-|
D|-3-3-3-3-x-x-3-3-3-3-x-x-3-3-3-3-x-x-3-3-3-3-x-x-|
A|-------------------------------------------------|
E|-------------------------------------------------|

e|-0-0-0-0-x-x-0-0-0-0-x-x-0-0-0-0-x-x-0-0-0-0-x-x-|
B|-6-6-6-6-x-x-6-6-6-6-x-x-5-5-5-5-x-x-5-5-5-5-x-x-|
G|-5-5-5-5-x-x-5-5-5-5-x-x-5-5-5-5-x-x-5-5-5-5-x-x-|
D|-3-3-3-3-x-x-3-3-3-3-x-x-3-3-3-3-x-x-3-3-3-3-x-x-|
A|-------------------------------------------------|
E|-------------------------------------------------|


The chords for the chorus are something like this:

e|-------------------------------------------------|
B|-------------------------------------------------|
G|-0-0-0-0-x-x-0-0-0-0-x-x-0-0-0-0-x-x-0-0-0-0-x-x-|
D|-4-4-4-4-x-x-4-4-4-4-x-x-4-4-4-4-x-x-4-4-4-4-x-x-|
A|-5-5-5-5-x-x-5-5-5-5-x-x-5-5-5-5-x-x-5-5-5-5-x-x-|
E|-3-3-3-3-x-x-3-3-3-3-x-x-3-3-3-3-x-x-3-3-3-3-x-x-|

Then you move the same shape up a string:


e|-0-0-0-0-x-x-0-0-0-0-x-x-0-0-0-0-x-x-0-0-0-0-x-x-|
G|-4-4-4-4-x-x-4-4-4-4-x-x-4-4-4-4-x-x-4-4-4-4-x-x-|
B|-5-5-5-5-x-x-5-5-5-5-x-x-5-5-5-5-x-x-5-5-5-5-x-x-|
D|-3-3-3-3-x-x-3-3-3-3-x-x-3-3-3-3-x-x-3-3-3-3-x-x-|
A|-------------------------------------------------|
E|-------------------------------------------------|


Tap to rate this tab
# A B C D E F G H I J K L M N O P Q R S T U V W X Y Z