Guitaretab - guitar tabs
Song name
# A B C D E F G H I J K L M N O P Q R S T U V W X Y Z

Possessed - Confessions tab

Band- Possessed
Song- Confessions

Fig. 1 x1
e|---------|--------|
B|---------|--------|
G|---------|--4--4--|
D|------5--|--4--4--|
A|--555-5--|--2--2--|
E|--333-3--|--------|

Riff 1 x4
e|-------------------|-------------------|-------------------|--------------|
B|-------------------|-------------------|-------------------|--------------|
G|-------------------|-------------------|-------------------|--------4--4--|
D|-------------------|-------------------|-------------------|--5--5--4--4--|
A|-------------------|-------------------|-------------------|--5--5--2--2--|
E|--000-567-000-8-7--|--000-567-000-8-7--|--000-567-000-8-7--|--3--3--------|
[ Tab from: http://www.guitaretab.com/p/possessed/139647.html ]
Riff 2 x2
e|-----------|-------------------|-----------|-----------------|
B|-----------|-------------------|-----------|-----------------|
G|----4---4--|--------------2h3--|----4---4--|--------------5--|
D|----4---4--|----2-3-2h3p2------|----4---4--|----2-3-2h3p2-5--|
A|--2-2-2-2--|--3----------------|--2-2-2-2--|--3-----------3--|
E|-----------|-------------------|-----------|-----------------|

Repeat Riff 1 x4
Repeat Riff 2 x2

Riff 3 x8
e|-------------------------|
B|-------------------------|
G|-------------------------|
D|---------4-5--------5-6--|
A|---------2-3--------3-4--|
E|--333333-----333333------|

Fig. 2 x4
e|-----|-----|-----|-----|
B|-----|-----|-----|-----|
G|-----|-----|--5--|--4--|
D|--5--|--4--|--5--|--4--|
A|--5--|--4--|--3--|--2--|
E|--3--|--2--|-----|-----|

Riff 4 x8
e|-------------------------|
B|-------------------------|
G|-------------------------|
D|-----------------6-------|
A|--5--------------4-------|
E|----3333-6-3-5-3---3333--|

Repeat Fig. 1 x1
Repeat Riff 1 x6
Repeat Riff 4 x12
Repeat Fig. 1 x1
Repeat Riff 4 x1
Repeat Fig. 1 x1

End x1
e|-----|
B|-----|
G|-----|
D|--2--|
A|--2--|
E|--0--|
Related for Confessions tab
Confessions chords by Possessed