Song name
# A B C D E F G H I J K L M N O P Q R S T U V W X Y Z

Pothead - Fire tab

Help us improve GuitareTab! Take a short survey!
Pothead - Fire (Rumely Oil Pull) 

Intro 

4*

d# |----------------------------------------------------------|
a# |----------------------------------------------------------|
f# |----------------------------------------------------------|
c# |-5-5-5-5-5--6-6-6-6-6--3-3-3--5-5-5-5-5--1-1-1-1-1--0-0-0-|
g# |-5-5-5-5-5--6-6-6-6-6--3-3-3--5-5-5-5-5--1-1-1-1-1--0-0-0-|
C# |-5-5-5-5-5--6-6-6-6-6--3-3-3--5-5-5-5-5--1-1-1-1-1--0-0-0-|

4* |----------------------------------------------------------|
   |----------------------------------------------------------|
   |----------------------------------------------------------|
   |-5-5-5-5-5--6-6-6-6-6--3-3-3--5-5-5-5-5--1-1-1-1-1--0-0-0-|
   |-5-5-5-5-5--6-6-6-6-6--3-3-3--5-5-5-5-5--1-1-1-1-1--0-0-0-|
   |-5-5-5-5-5--6-6-6-6-6--3-3-3--5-5-5-5-5--1-1-1-1-1--0-0-0-|
     * * * * *  * * * * *  * * *  * * * * *  * * * * *  * * *

4* |----------------|
   |----------------|
   |----------------|
   |-1-1-1-1--0-0-0-|
   |-1-1-1-1--0-0-0-|
   |-1-1-1-1--0-0-0-|



by scheel
Related for Fire tab